  0
SECTION
  2
HEADER
  9
$ACADVER
  1
AC1014
  9
$ACADMAINTVER
 70
     9
  9
$DWGCODEPAGE
  3
ANSI_932
  9
$INSBASE
 10
0.0
 20
0.0
 30
0.0
  9
$EXTMIN
 10
-262.8750002861023
 20
-99.51657863227815
 30
0.0
  9
$EXTMAX
 10
266.6250002861023
 20
98.51657863227815
 30
0.0
  9
$LIMMIN
 10
-148.5
 20
-105.0
  9
$LIMMAX
 10
148.5
 20
105.0
  9
$ORTHOMODE
 70
     0
  9
$REGENMODE
 70
     1
  9
$FILLMODE
 70
     1
  9
$QTEXTMODE
 70
     0
  9
$MIRRTEXT
 70
     1
  9
$DRAGMODE
 70
     2
  9
$LTSCALE
 40
1.0
  9
$OSMODE
 70
    37
  9
$ATTMODE
 70
     1
  9
$TEXTSIZE
 40
0.2
  9
$TRACEWID
 40
0.05
  9
$TEXTSTYLE
  7
STANDARD
  9
$CLAYER
  8
0
  9
$CELTYPE
  6
BYLAYER
  9
$CECOLOR
 62
   256
  9
$CELTSCALE
 40
1.0
  9
$DELOBJ
 70
     1
  9
$DISPSILH
 70
     0
  9
$DIMSCALE
 40
1.0
  9
$DIMASZ
 40
2.5
  9
$DIMEXO
 40
0.0625
  9
$DIMDLI
 40
0.38
  9
$DIMRND
 40
0.0
  9
$DIMDLE
 40
0.0
  9
$DIMEXE
 40
0.18
  9
$DIMTP
 40
0.0
  9
$DIMTM
 40
0.0
  9
$DIMTXT
 40
0.18
  9
$DIMCEN
 40
0.09
  9
$DIMTSZ
 40
0.0
  9
$DIMTOL
 70
     0
  9
$DIMLIM
 70
     0
  9
$DIMTIH
 70
     1
  9
$DIMTOH
 70
     1
  9
$DIMSE1
 70
     0
  9
$DIMSE2
 70
     0
  9
$DIMTAD
 70
     3
  9
$DIMZIN
 70
     0
  9
$DIMBLK
  1

  9
$DIMASO
 70
     1
  9
$DIMSHO
 70
     1
  9
$DIMPOST
  1

  9
$DIMAPOST
  1

  9
$DIMALT
 70
     0
  9
$DIMALTD
 70
     2
  9
$DIMALTF
 40
25.4
  9
$DIMLFAC
 40
1.0
  9
$DIMTOFL
 70
     0
  9
$DIMTVP
 40
0.0
  9
$DIMTIX
 70
     0
  9
$DIMSOXD
 70
     0
  9
$DIMSAH
 70
     0
  9
$DIMBLK1
  1

  9
$DIMBLK2
  1

  9
$DIMSTYLE
  2
STANDARD
  9
$DIMCLRD
 70
     0
  9
$DIMCLRE
 70
     0
  9
$DIMCLRT
 70
     0
  9
$DIMTFAC
 40
1.0
  9
$DIMGAP
 40
0.09
  9
$DIMJUST
 70
     0
  9
$DIMSD1
 70
     0
  9
$DIMSD2
 70
     0
  9
$DIMTOLJ
 70
     1
  9
$DIMTZIN
 70
     0
  9
$DIMALTZ
 70
     0
  9
$DIMALTTZ
 70
     0
  9
$DIMFIT
 70
     3
  9
$DIMUPT
 70
     0
  9
$DIMUNIT
 70
     2
  9
$DIMDEC
 70
     4
  9
$DIMTDEC
 70
     4
  9
$DIMALTU
 70
     2
  9
$DIMALTTD
 70
     2
  9
$DIMTXSTY
  7
STANDARD
  9
$DIMAUNIT
 70
     0
  9
$LUNITS
 70
     2
  9
$LUPREC
 70
     4
  9
$SKETCHINC
 40
0.1
  9
$FILLETRAD
 40
0.5
  9
$AUNITS
 70
     0
  9
$AUPREC
 70
     0
  9
$MENU
  1
.
  9
$ELEVATION
 40
0.0
  9
$PELEVATION
 40
0.0
  9
$THICKNESS
 40
0.0
  9
$LIMCHECK
 70
     0
  9
$CHAMFERA
 40
0.5
  9
$CHAMFERB
 40
0.5
  9
$CHAMFERC
 40
1.0
  9
$CHAMFERD
 40
0.0
  9
$SKPOLY
 70
     0
  9
$TDCREATE
 40
2456434.792158194
  9
$TDUPDATE
 40
2456434.792158206
  9
$TDINDWG
 40
0.0000000116
  9
$TDUSRTIMER
 40
0.0000000116
  9
$USRTIMER
 70
     1
  9
$ANGBASE
 50
0.0
  9
$ANGDIR
 70
     0
  9
$PDMODE
 70
     0
  9
$PDSIZE
 40
1.0
  9
$PLINEWID
 40
0.0
  9
$COORDS
 70
     1
  9
$SPLFRAME
 70
     0
  9
$SPLINETYPE
 70
     6
  9
$SPLINESEGS
 70
     8
  9
$ATTDIA
 70
     0
  9
$ATTREQ
 70
     1
  9
$HANDLING
 70
     1
  9
$HANDSEED
  5
169
  9
$SURFTAB1
 70
     6
  9
$SURFTAB2
 70
     6
  9
$SURFTYPE
 70
     6
  9
$SURFU
 70
     6
  9
$SURFV
 70
     6
  9
$UCSNAME
  2

  9
$UCSORG
 10
0.0
 20
0.0
 30
0.0
  9
$UCSXDIR
 10
1.0
 20
0.0
 30
0.0
  9
$UCSYDIR
 10
0.0
 20
1.0
 30
0.0
  9
$PUCSNAME
  2

  9
$PUCSORG
 10
0.0
 20
0.0
 30
0.0
  9
$PUCSXDIR
 10
1.0
 20
0.0
 30
0.0
  9
$PUCSYDIR
 10
0.0
 20
1.0
 30
0.0
  9
$USERI1
 70
     0
  9
$USERI2
 70
     0
  9
$USERI3
 70
     0
  9
$USERI4
 70
     0
  9
$USERI5
 70
     0
  9
$USERR1
 40
0.0
  9
$USERR2
 40
0.0
  9
$USERR3
 40
0.0
  9
$USERR4
 40
0.0
  9
$USERR5
 40
0.0
  9
$WORLDVIEW
 70
     1
  9
$SHADEDGE
 70
     3
  9
$SHADEDIF
 70
    70
  9
$TILEMODE
 70
     1
  9
$MAXACTVP
 70
    64
  9
$PINSBASE
 10
0.0
 20
0.0
 30
0.0
  9
$PLIMCHECK
 70
     0
  9
$PEXTMIN
 10
1.000000000000000E+20
 20
1.000000000000000E+20
 30
1.000000000000000E+20
  9
$PEXTMAX
 10
-1.000000000000000E+20
 20
-1.000000000000000E+20
 30
-1.000000000000000E+20
  9
$PLIMMIN
 10
0.0
 20
0.0
  9
$PLIMMAX
 10
12.0
 20
9.0
  9
$UNITMODE
 70
     0
  9
$VISRETAIN
 70
     0
  9
$PLINEGEN
 70
     1
  9
$PSLTSCALE
 70
     0
  9
$TREEDEPTH
 70
  3020
  9
$PICKSTYLE
 70
     1
  9
$CMLSTYLE
  2
STANDARD
  9
$CMLJUST
 70
     0
  9
$CMLSCALE
 40
1.0
  9
$PROXYGRAPHICS
 70
     0
  9
$MEASUREMENT
 70
     1
  0
ENDSEC
  0
SECTION
  2
CLASSES
  0
CLASS
  1
ACDBDICTIONARYWDFLT
  2
AcDbDictionaryWithDefault
  3
ObjectDBX Classes
 90
        0
280
     0
281
     0
  0
CLASS
  1
XRECORD
  2
AcDbXrecord
  3
AutoCAD 2000
 90
        0
280
     0
281
     0
  0
CLASS
  1
LWPOLYLINE
  2
AcDbPolyline
  3
AutoCAD 2000
 90
        0
280
     0
281
     1
  0
CLASS
  1
HATCH
  2
AcDbHatch
  3
AutoCAD 2000
 90
        0
280
     0
281
     1
  0
CLASS
  1
ACDBPLACEHOLDER
  2
AcDbPlaceHolder
  3
ObjectDBX Classes
 90
        0
280
     0
281
     0
  0
CLASS
  1
LAYOUT
  2
AcDbLayout
  3
ObjectDBX Classes
 90
        0
280
     0
281
     0
  0
ENDSEC
  0
SECTION
  2
TABLES
  0
TABLE
  2
VPORT
  5
8
330
0
100
AcDbSymbolTable
 70
     1
  0
VPORT
  5
29
330
8
100
AcDbSymbolTableRecord
100
AcDbViewportTableRecord
  2
*ACTIVE
 70
     0
 10
0.0
 20
0.0
 11
1.0
 21
1.0
 12
0.0
 22
0.0
 13
0.0
 23
0.0
 14
0.5
 24
0.5
 15
0.5
 25
0.5
 16
0.0
 26
0.0
 36
1.0
 17
1.874999999999982
 27
-0.5
 37
0.0
 40
67.33127346994915
 41
2.673794670984492
 42
50.0
 43
0.0
 44
0.0
 50
0.0
 51
0.0
 71
     0
 72
  1000
 73
     1
 74
     1
 75
     0
 76
     0
 77
     0
 78
     0
  0
ENDTAB
  0
TABLE
  2
LTYPE
  5
5
330
0
100
AcDbSymbolTable
 70
    28
  0
LTYPE
  5
14
330
5
100
AcDbSymbolTableRecord
100
AcDbLinetypeTableRecord
  2
BYBLOCK
 70
     0
  3

 72
    65
 73
     0
 40
0.0
  0
LTYPE
  5
15
330
5
100
AcDbSymbolTableRecord
100
AcDbLinetypeTableRecord
  2
BYLAYER
 70
     0
  3

 72
    65
 73
     0
 40
0.0
  0
LTYPE
  5
16
330
5
100
AcDbSymbolTableRecord
100
AcDbLinetypeTableRecord
  2
CONTINUOUS
 70
     0
  3
Solid line
 72
    65
 73
     0
 40
0.0
  0
LTYPE
  5
2B
330
5
100
AcDbSymbolTableRecord
100
AcDbLinetypeTableRecord
  2
HIDDENX2
 70
     0
  3
CADPAC LINETYPE
 72
    65
 73
     2
 40
4.57516339869278
 49
3.431372549019585
 74
     0
 49
-1.143790849673195
 74
     0
  0
LTYPE
  5
2C
330
5
100
AcDbSymbolTableRecord
100
AcDbLinetypeTableRecord
  2
HIDDEN
 70
     0
  3
CADPAC LINETYPE
 72
    65
 73
     2
 40
3.431372549019585
 49
2.28758169934639
 74
     0
 49
-1.143790849673195
 74
     0
  0
LTYPE
  5
2D
330
5
100
AcDbSymbolTableRecord
100
AcDbLinetypeTableRecord
  2
HIDDEN2
 70
     0
  3
CADPAC LINETYPE
 72
    65
 73
     2
 40
2.859477124182988
 49
1.715686274509793
 74
     0
 49
-1.143790849673195
 74
     0
  0
LTYPE
  5
2E
330
5
100
AcDbSymbolTableRecord
100
AcDbLinetypeTableRecord
  2
DASHED
 70
     0
  3
CADPAC LINETYPE
 72
    65
 73
     2
 40
3.202614379084935
 49
2.28758169934639
 74
     0
 49
-0.9150326797385446
 74
     0
  0
LTYPE
  5
2F
330
5
100
AcDbSymbolTableRecord
100
AcDbLinetypeTableRecord
  2
DASHED2
 70
     0
  3
CADPAC LINETYPE
 72
    65
 73
     2
 40
2.058823529411711
 49
1.372549019607817
 74
     0
 49
-0.6862745098038943
 74
     0
  0
LTYPE
  5
30
330
5
100
AcDbSymbolTableRecord
100
AcDbLinetypeTableRecord
  2
DASHEDX2
 70
     0
  3
CADPAC LINETYPE
 72
    65
 73
     2
 40
5.490196078431325
 49
4.57516339869278
 74
     0
 49
-0.9150326797385446
 74
     0
  0
LTYPE
  5
31
330
5
100
AcDbSymbolTableRecord
100
AcDbLinetypeTableRecord
  2
DOTX2
 70
     0
  3
CADPAC LINETYPE
 72
    65
 73
     2
 40
2.001633986928084
 49
0.0
 74
     0
 49
-2.001633986928084
 74
     0
  0
LTYPE
  5
32
330
5
100
AcDbSymbolTableRecord
100
AcDbLinetypeTableRecord
  2
DOT
 70
     0
  3
CADPAC LINETYPE
 72
    65
 73
     2
 40
1.601307189542467
 49
0.0
 74
     0
 49
-1.601307189542467
 74
     0
  0
LTYPE
  5
33
330
5
100
AcDbSymbolTableRecord
100
AcDbLinetypeTableRecord
  2
DOT2
 70
     0
  3
CADPAC LINETYPE
 72
    65
 73
     2
 40
1.200980392156851
 49
0.0
 74
     0
 49
-1.200980392156851
 74
     0
  0
LTYPE
  5
34
330
5
100
AcDbSymbolTableRecord
100
AcDbLinetypeTableRecord
  2
CENTERX2
 70
     0
  3
CADPAC LINETYPE
 72
    65
 73
     4
 40
6.86274509803917
 49
2.859477124182988
 74
     0
 49
-1.429738562091494
 74
     0
 49
1.143790849673195
 74
     0
 49
-1.429738562091494
 74
     0
  0
LTYPE
  5
35
330
5
100
AcDbSymbolTableRecord
100
AcDbLinetypeTableRecord
  2
CENTER
 70
     0
  3
CADPAC LINETYPE
 72
    65
 73
     4
 40
5.261437908496697
 49
2.28758169934639
 74
     0
 49
-1.143790849673195
 74
     0
 49
0.686274509803917
 74
     0
 49
-1.143790849673195
 74
     0
  0
LTYPE
  5
36
330
5
100
AcDbSymbolTableRecord
100
AcDbLinetypeTableRecord
  2
CENTER2
 70
     0
  3
CADPAC LINETYPE
 72
    65
 73
     4
 40
3.660130718954224
 49
1.715686274509793
 74
     0
 49
-0.8578431372548963
 74
     0
 49
0.228758169934639
 74
     0
 49
-0.8578431372548963
 74
     0
  0
LTYPE
  5
37
330
5
100
AcDbSymbolTableRecord
100
AcDbLinetypeTableRecord
  2
DASHDOTX2
 70
     0
  3
CADPAC LINETYPE
 72
    65
 73
     4
 40
10.98039215686262
 49
5.490196078431353
 74
     0
 49
-1.830065359477089
 74
     0
 49
1.830065359477089
 74
     0
 49
-1.830065359477089
 74
     0
  0
LTYPE
  5
38
330
5
100
AcDbSymbolTableRecord
100
AcDbLinetypeTableRecord
  2
DASHDOT
 70
     0
  3
CADPAC LINETYPE
 72
    65
 73
     4
 40
5.490196078431296
 49
2.745098039215662
 74
     0
 49
-0.9150326797385446
 74
     0
 49
0.9150326797385446
 74
     0
 49
-0.9150326797385446
 74
     0
  0
LTYPE
  5
39
330
5
100
AcDbSymbolTableRecord
100
AcDbLinetypeTableRecord
  2
DASHDOT2
 70
     0
  3
CADPAC LINETYPE
 72
    65
 73
     4
 40
3.522875816993418
 49
2.058823529411747
 74
     0
 49
-0.6862745098039085
 74
     0
 49
0.0915032679738545
 74
     0
 49
-0.6862745098039085
 74
     0
  0
LTYPE
  5
3A
330
5
100
AcDbSymbolTableRecord
100
AcDbLinetypeTableRecord
  2
DIVIDEX2
 70
     0
  3
CADPAC LINETYPE
 72
    65
 73
     6
 40
14.6405228758168
 49
5.490196078431353
 74
     0
 49
-1.830065359477089
 74
     0
 49
1.830065359477089
 74
     0
 49
-1.830065359477089
 74
     0
 49
1.830065359477089
 74
     0
 49
-1.830065359477089
 74
     0
  0
LTYPE
  5
3B
330
5
100
AcDbSymbolTableRecord
100
AcDbLinetypeTableRecord
  2
DIVIDE
 70
     0
  3
CADPAC LINETYPE
 72
    65
 73
     6
 40
7.320261437908386
 49
2.745098039215662
 74
     0
 49
-0.9150326797385446
 74
     0
 49
0.9150326797385446
 74
     0
 49
-0.9150326797385446
 74
     0
 49
0.9150326797385446
 74
     0
 49
-0.9150326797385446
 74
     0
  0
LTYPE
  5
3C
330
5
100
AcDbSymbolTableRecord
100
AcDbLinetypeTableRecord
  2
DIVIDE2
 70
     0
  3
CADPAC LINETYPE
 72
    65
 73
     6
 40
5.490196078431289
 49
2.058823529411747
 74
     0
 49
-0.6862745098039085
 74
     0
 49
0.6862745098039085
 74
     0
 49
-0.6862745098039085
 74
     0
 49
0.6862745098039085
 74
     0
 49
-0.6862745098039085
 74
     0
  0
LTYPE
  5
3D
330
5
100
AcDbSymbolTableRecord
100
AcDbLinetypeTableRecord
  2
BORDERX2
 70
     0
  3
CADPAC LINETYPE
 72
    65
 73
     6
 40
10.00816993464046
 49
2.859477124182988
 74
     0
 49
-1.429738562091494
 74
     0
 49
2.859477124182988
 74
     0
 49
-1.429738562091494
 74
     0
 49
0.0
 74
     0
 49
-1.429738562091494
 74
     0
  0
LTYPE
  5
3E
330
5
100
AcDbSymbolTableRecord
100
AcDbLinetypeTableRecord
  2
BORDER
 70
     0
  3
CADPAC LINETYPE
 72
    65
 73
     6
 40
8.006535947712365
 49
2.28758169934639
 74
     0
 49
-1.143790849673195
 74
     0
 49
2.28758169934639
 74
     0
 49
-1.143790849673195
 74
     0
 49
0.0
 74
     0
 49
-1.143790849673195
 74
     0
  0
LTYPE
  5
3F
330
5
100
AcDbSymbolTableRecord
100
AcDbLinetypeTableRecord
  2
BORDER2
 70
     0
  3
CADPAC LINETYPE
 72
    65
 73
     6
 40
5.947712418300569
 49
1.830065359477089
 74
     0
 49
-1.143790849673195
 74
     0
 49
0.6862745098038943
 74
     0
 49
-1.143790849673195
 74
     0
 49
0.0
 74
     0
 49
-1.143790849673195
 74
     0
  0
LTYPE
  5
40
330
5
100
AcDbSymbolTableRecord
100
AcDbLinetypeTableRecord
  2
PHANTOMX2
 70
     0
  3
CADPAC LINETYPE
 72
    65
 73
     6
 40
8.578431372548963
 49
2.859477124182988
 74
     0
 49
-1.143790849673195
 74
     0
 49
1.143790849673195
 74
     0
 49
-1.143790849673195
 74
     0
 49
1.143790849673195
 74
     0
 49
-1.143790849673195
 74
     0
  0
LTYPE
  5
41
330
5
100
AcDbSymbolTableRecord
100
AcDbLinetypeTableRecord
  2
PHANTOM
 70
     0
  3
CADPAC LINETYPE
 72
    65
 73
     6
 40
7.09150326797381
 49
2.28758169934639
 74
     0
 49
-1.143790849673195
 74
     0
 49
0.686274509803917
 74
     0
 49
-1.143790849673195
 74
     0
 49
0.686274509803917
 74
     0
 49
-1.143790849673195
 74
     0
  0
LTYPE
  5
42
330
5
100
AcDbSymbolTableRecord
100
AcDbLinetypeTableRecord
  2
PHANTOM2
 70
     0
  3
CADPAC LINETYPE
 72
    65
 73
     6
 40
6.062091503267933
 49
1.715686274509793
 74
     0
 49
-1.143790849673195
 74
     0
 49
0.457516339869278
 74
     0
 49
-1.143790849673195
 74
     0
 49
0.457516339869278
 74
     0
 49
-1.143790849673195
 74
     0
  0
LTYPE
  5
43
330
5
100
AcDbSymbolTableRecord
100
AcDbLinetypeTableRecord
  2
ACAD_ISO06W100
 70
     0
  3
CADPAC LINETYPE
 72
    65
 73
     8
 40
12.12418300653582
 49
5.490196078431353
 74
     0
 49
-1.143790849673195
 74
     0
 49
0.6862745098038943
 74
     0
 49
-1.143790849673195
 74
     0
 49
0.6862745098038943
 74
     0
 49
-1.143790849673195
 74
     0
 49
0.6862745098038943
 74
     0
 49
-1.143790849673195
 74
     0
  0
LTYPE
  5
44
330
5
100
AcDbSymbolTableRecord
100
AcDbLinetypeTableRecord
  2
ACAD_ISO13W100
 70
     0
  3
CADPAC LINETYPE
 72
    65
 73
     8
 40
9.15032679738556
 49
2.28758169934639
 74
     0
 49
-1.143790849673195
 74
     0
 49
2.28758169934639
 74
     0
 49
-1.143790849673195
 74
     0
 49
0.0
 74
     0
 49
-1.143790849673195
 74
     0
 49
0.0
 74
     0
 49
-1.143790849673195
 74
     0
  0
LTYPE
  5
45
330
5
100
AcDbSymbolTableRecord
100
AcDbLinetypeTableRecord
  2
ACAD_ISO14W100
 70
     0
  3
CADPAC LINETYPE
 72
    65
 73
     8
 40
6.86274509803917
 49
2.28758169934639
 74
     0
 49
-1.143790849673195
 74
     0
 49
0.0
 74
     0
 49
-1.143790849673195
 74
     0
 49
0.0
 74
     0
 49
-1.143790849673195
 74
     0
 49
0.0
 74
     0
 49
-1.143790849673195
 74
     0
  0
ENDTAB
  0
TABLE
  2
LAYER
  5
2
330
0
100
AcDbSymbolTable
 70
     3
  0
LAYER
  5
10
330
2
100
AcDbSymbolTableRecord
100
AcDbLayerTableRecord
  2
0
 70
     0
 62
     7
  6
CONTINUOUS
  0
LAYER
  5
46
330
2
100
AcDbSymbolTableRecord
100
AcDbLayerTableRecord
  2
LAYER0001
 70
     0
 62
     7
  6
CONTINUOUS
  0
LAYER
  5
47
330
2
100
AcDbSymbolTableRecord
100
AcDbLayerTableRecord
  2
LAYER0064
 70
     0
 62
     7
  6
CONTINUOUS
  0
ENDTAB
  0
TABLE
  2
STYLE
  5
3
330
0
100
AcDbSymbolTable
 70
     2
  0
STYLE
  5
11
330
3
100
AcDbSymbolTableRecord
100
AcDbTextStyleTableRecord
  2
STANDARD
 70
     0
 40
0.0
 41
1.0
 50
0.0
 71
     0
 42
0.2
  3
txt
  4

  0
STYLE
  5
5A
330
3
100
AcDbSymbolTableRecord
100
AcDbTextStyleTableRecord
  2
FDASTYLE0
 70
     0
 40
4.0
 41
0.7500000000000001
 50
0.0
 71
     0
 42
0.2
  3
txt.shx
  4
bigfont
  0
ENDTAB
  0
TABLE
  2
VIEW
  5
6
330
0
100
AcDbSymbolTable
 70
     0
  0
ENDTAB
  0
TABLE
  2
UCS
  5
7
330
0
100
AcDbSymbolTable
 70
     0
  0
ENDTAB
  0
TABLE
  2
APPID
  5
9
330
0
100
AcDbSymbolTable
 70
     2
  0
APPID
  5
12
330
9
100
AcDbSymbolTableRecord
100
AcDbRegAppTableRecord
  2
ACAD
 70
     0
  0
APPID
  5
2A
330
9
100
AcDbSymbolTableRecord
100
AcDbRegAppTableRecord
  2
DAFUSIONOUT
 70
     0
  0
ENDTAB
  0
TABLE
  2
DIMSTYLE
  5
A
330
0
100
AcDbSymbolTable
 70
     1
  0
DIMSTYLE
105
27
330
A
100
AcDbSymbolTableRecord
100
AcDbDimStyleTableRecord
  2
STANDARD
 70
     0
  3

  4

  5

  6

  7

 40
1.0
 41
0.18
 42
0.0625
 43
0.38
 44
0.18
 45
0.0
 46
0.0
 47
0.0
 48
0.0
140
0.18
141
0.09
142
0.0
143
25.4
144
1.0
145
0.0
146
1.0
147
0.09
 71
     0
 72
     0
 73
     1
 74
     1
 75
     0
 76
     0
 77
     0
 78
     0
170
     0
171
     2
172
     0
173
     0
174
     0
175
     0
176
     0
177
     0
178
     0
270
     2
271
     4
272
     4
273
     2
274
     2
340
11
275
     0
280
     0
281
     0
282
     0
283
     1
284
     0
285
     0
286
     0
287
     3
288
     0
  0
ENDTAB
  0
TABLE
  2
BLOCK_RECORD
  5
1
330
0
100
AcDbSymbolTable
 70
     5
  0
BLOCK_RECORD
  5
1F
330
1
100
AcDbSymbolTableRecord
100
AcDbBlockTableRecord
  2
*MODEL_SPACE
  0
BLOCK_RECORD
  5
1B
330
1
100
AcDbSymbolTableRecord
100
AcDbBlockTableRecord
  2
*PAPER_SPACE
  0
BLOCK_RECORD
  5
49
330
1
100
AcDbSymbolTableRecord
100
AcDbBlockTableRecord
  2
DA_IMAGEDIMGROUP_1
  0
BLOCK_RECORD
  5
4C
330
1
100
AcDbSymbolTableRecord
100
AcDbBlockTableRecord
  2
DA_IMAGEDIMGROUP_2
  0
BLOCK_RECORD
  5
51
330
1
100
AcDbSymbolTableRecord
100
AcDbBlockTableRecord
  2
_OPEN30
  0
BLOCK_RECORD
  5
6F
330
1
100
AcDbSymbolTableRecord
100
AcDbBlockTableRecord
  2
_DOT
  0
ENDTAB
  0
ENDSEC
  0
SECTION
  2
BLOCKS
  0
BLOCK
  5
20
330
1F
100
AcDbEntity
  8
0
100
AcDbBlockBegin
  2
*MODEL_SPACE
 70
     0
 71
     0
 10
0.0
 20
0.0
 30
0.0
  3
*MODEL_SPACE
  1

  0
ENDBLK
  5
21
330
1F
100
AcDbEntity
  8
0
100
AcDbBlockEnd
  0
BLOCK
  5
1C
330
1B
100
AcDbEntity
 67
     1
  8
0
100
AcDbBlockBegin
  2
*PAPER_SPACE
 70
     0
 71
     0
 10
0.0
 20
0.0
 30
0.0
  3
*PAPER_SPACE
  1

  0
ENDBLK
  5
1D
330
1B
100
AcDbEntity
 67
     1
  8
0
100
AcDbBlockEnd
  0
BLOCK
  5
4A
330
49
100
AcDbEntity
  8
0
100
AcDbBlockBegin
  2
DA_IMAGEDIMGROUP_1
 70
     0
 71
     0
 10
0.0
 20
0.0
 30
0.0
  3
DA_IMAGEDIMGROUP_1
  1

  0
LINE
  5
4F
330
49
100
AcDbEntity
  8
0
  6
CONTINUOUS
 62
     9
100
AcDbLine
 10
31.62499990463257
 20
-9.494473789240603
 30
0.0
 11
31.62499990463257
 21
3.505526210759388
 31
0.0
  0
LINE
  5
50
330
49
100
AcDbEntity
  8
0
  6
CONTINUOUS
 62
     9
100
AcDbLine
 10
31.62499990463257
 20
-31.8562537892406
 30
0.0
 11
31.62499990463257
 21
-9.494473789240603
 31
0.0
  0
INSERT
  5
57
330
49
100
AcDbEntity
  8
0
 62
     9
100
AcDbBlockReference
  2
_OPEN30
 10
31.62499990463257
 20
-9.494473789240603
 30
0.0
 41
3.000002787824364
 42
2.999989273978464
 50
90.0
  0
LINE
  5
58
330
49
100
AcDbEntity
  8
0
  6
CONTINUOUS
 62
     9
100
AcDbLine
 10
31.62499990463257
 20
8.505526210759388
 30
0.0
 11
31.62499990463257
 21
3.505526210759388
 31
0.0
  0
INSERT
  5
59
330
49
100
AcDbEntity
  8
0
 62
     9
100
AcDbBlockReference
  2
_OPEN30
 10
31.62499990463257
 20
3.505526210759388
 30
0.0
 41
3.000002787824364
 42
2.999989273978464
 50
270.0
  0
TEXT
  5
5B
330
49
100
AcDbEntity
  8
0
 62
     7
100
AcDbText
 10
30.62499990463257
 20
-30.85625378924061
 30
0.0
 40
4.0
  1
φ13
 50
90.0
 41
0.7500000000000001
  7
FDASTYLE0
 72
     5
 11
30.62499990463257
 21
-21.25625378924061
 31
0.0
100
AcDbText
  0
TEXT
  5
5C
330
49
100
AcDbEntity
  8
0
 62
     7
100
AcDbText
 10
28.02499990463257
 20
-20.25625378924061
 30
0.0
 40
2.6
  1
±0.2
 50
90.0
 41
0.7619047619047619
  7
FDASTYLE0
 72
     5
 11
28.02499990463257
 21
-11.93625378924061
 31
0.0
100
AcDbText
  0
ENDBLK
  5
4B
330
49
100
AcDbEntity
  8
0
100
AcDbBlockEnd
  0
BLOCK
  5
4D
330
4C
100
AcDbEntity
  8
0
100
AcDbBlockBegin
  2
DA_IMAGEDIMGROUP_2
 70
     0
 71
     0
 10
0.0
 20
0.0
 30
0.0
  3
DA_IMAGEDIMGROUP_2
  1

  0
LINE
  5
5D
330
4C
100
AcDbEntity
  8
0
  6
CONTINUOUS
 62
     9
100
AcDbLine
 10
47.12500009536743
 20
-6.994473675991751
 30
0.0
 11
57.12500009536743
 21
-6.994473675991751
 31
0.0
  0
LINE
  5
5E
330
4C
100
AcDbEntity
  8
0
  6
CONTINUOUS
 62
     9
100
AcDbLine
 10
47.12500009536743
 20
1.005526097510552
 30
0.0
 11
57.12500009536743
 21
1.005526097510552
 31
0.0
  0
LINE
  5
5F
330
4C
100
AcDbEntity
  8
0
  6
CONTINUOUS
 62
     9
100
AcDbLine
 10
56.12500009536743
 20
-6.994473675991751
 30
0.0
 11
56.12500009536743
 21
1.005526097510552
 31
0.0
  0
INSERT
  5
60
330
4C
100
AcDbEntity
  8
0
 62
     9
100
AcDbBlockReference
  2
_OPEN30
 10
56.12500009536743
 20
-6.994473675991751
 30
0.0
 41
3.000002787824364
 42
2.999989273978464
 50
270.0
  0
INSERT
  5
61
330
4C
100
AcDbEntity
  8
0
 62
     9
100
AcDbBlockReference
  2
_OPEN30
 10
56.12500009536743
 20
1.005526097510552
 30
0.0
 41
3.000002787824364
 42
2.999989273978464
 50
90.0
  0
TEXT
  5
62
330
4C
100
AcDbEntity
  8
0
 62
     7
100
AcDbText
 10
55.12500009536743
 20
-4.594473789240601
 30
0.0
 40
4.0
  1
8
 50
90.0
 41
0.8000000000000007
  7
FDASTYLE0
 72
     5
 11
55.12500009536743
 21
-1.394473789240598
 31
0.0
100
AcDbText
  0
ENDBLK
  5
4E
330
4C
100
AcDbEntity
  8
0
100
AcDbBlockEnd
  0
BLOCK
  5
52
330
51
100
AcDbEntity
  8
0
100
AcDbBlockBegin
  2
_OPEN30
 70
     0
 71
     0
 10
0.0
 20
0.0
 30
0.0
  3
_OPEN30
  1

  0
LINE
  5
54
330
51
100
AcDbEntity
  8
0
  6
BYBLOCK
 62
     0
100
AcDbLine
 10
-1.0
 20
0.267949
 30
0.0
 11
0.0
 21
0.0
 31
0.0
  0
LINE
  5
55
330
51
100
AcDbEntity
  8
0
  6
BYBLOCK
 62
     0
100
AcDbLine
 10
0.0
 20
0.0
 30
0.0
 11
-1.0
 21
-0.267949
 31
0.0
  0
LINE
  5
56
330
51
100
AcDbEntity
  8
0
  6
BYBLOCK
 62
     0
100
AcDbLine
 10
0.0
 20
0.0
 30
0.0
 11
-1.0
 21
0.0
 31
0.0
  0
ENDBLK
  5
53
330
51
100
AcDbEntity
  8
0
100
AcDbBlockEnd
  0
BLOCK
  5
70
330
6F
100
AcDbEntity
  8
0
100
AcDbBlockBegin
  2
_DOT
 70
     0
 71
     0
 10
0.0
 20
0.0
 30
0.0
  3
_DOT
  1

  0
LWPOLYLINE
  5
72
330
6F
100
AcDbEntity
  8
0
  6
BYBLOCK
 62
     0
100
AcDbPolyline
 90
        2
 70
     1
 43
0.5
 10
-0.25
 20
0.0
 42
1.0
 10
0.25
 20
0.0
 42
1.0
  0
LINE
  5
73
330
6F
100
AcDbEntity
  8
0
  6
BYBLOCK
 62
     0
100
AcDbLine
 10
-0.5
 20
0.0
 30
0.0
 11
-1.0
 21
0.0
 31
0.0
  0
ENDBLK
  5
71
330
6F
100
AcDbEntity
  8
0
100
AcDbBlockEnd
  0
ENDSEC
  0
SECTION
  2
ENTITIES
  0
LINE
  5
63
330
1F
100
AcDbEntity
  8
0
  6
DIVIDE
 62
     9
100
AcDbLine
 10
21.12499990463257
 20
3.505526210759371
 30
0.0
 11
21.12499990463257
 21
-9.494473789240606
 31
0.0
  0
LINE
  5
64
330
1F
100
AcDbEntity
  8
0
  6
DIVIDE
 62
     9
100
AcDbLine
 10
35.12499990463257
 20
3.505526210759385
 30
0.0
 11
35.12499990463257
 21
-9.494473789240606
 31
0.0
  0
LINE
  5
65
330
1F
100
AcDbEntity
  8
0
  6
CENTER
 62
     9
100
AcDbLine
 10
43.92499990463256
 20
-2.994473789240617
 30
0.0
 11
-21.12500009536744
 21
-2.994473789240617
 31
0.0
  0
LINE
  5
66
330
1F
100
AcDbEntity
  8
0
  6
CENTER
 62
     9
100
AcDbLine
 10
-71.87500009536744
 20
-1.494473789240603
 30
0.0
 11
-71.87500009536744
 21
-4.494473789240603
 31
0.0
  0
LINE
  5
67
330
1F
100
AcDbEntity
  8
0
  6
CENTER
 62
     9
100
AcDbLine
 10
-81.37500009536744
 20
-4.494473789240603
 30
0.0
 11
-81.37500009536744
 21
-1.494473789240603
 31
0.0
  0
CIRCLE
  5
68
330
1F
100
AcDbEntity
  8
0
  6
CONTINUOUS
 62
     9
100
AcDbCircle
 10
-71.87500009536744
 20
-2.994473789240603
 30
0.0
 40
1.0
  0
CIRCLE
  5
69
330
1F
100
AcDbEntity
  8
0
  6
CONTINUOUS
 62
     9
100
AcDbCircle
 10
-81.37500009536744
 20
-2.994473789240603
 30
0.0
 40
1.0
  0
LINE
  5
6A
330
1F
100
AcDbEntity
  8
0
  6
CONTINUOUS
 62
     9
100
AcDbLine
 10
76.12500009536743
 20
-17.4944737892406
 30
0.0
 11
79.79647947042616
 21
-6.938970585946777
 31
0.0
  0
INSERT
  5
6B
330
1F
100
AcDbEntity
  8
0
 62
     9
100
AcDbBlockReference
  2
_OPEN30
 10
79.79647947042616
 20
-6.938970585946777
 30
0.0
 41
3.000002787824364
 42
2.999989273978464
 50
70.8209919741892
  0
LINE
  5
6C
330
1F
100
AcDbEntity
  8
0
  6
CONTINUOUS
 62
     9
100
AcDbLine
 10
-81.43587181038389
 20
-3.777110125166145
 30
0.0
 11
-83.12500009536744
 21
-25.4944737892406
 31
0.0
  0
INSERT
  5
6D
330
1F
100
AcDbEntity
  8
0
 62
     9
100
AcDbBlockReference
  2
_OPEN30
 10
-81.43587181038389
 20
-3.777110125166145
 30
0.0
 41
3.000002787824364
 42
2.999989273978464
 50
85.55261514990954
  0
LINE
  5
6E
330
1F
100
AcDbEntity
  8
0
  6
CONTINUOUS
 62
     9
100
AcDbLine
 10
13.92411728206018
 20
-33.50552621075939
 30
0.0
 11
24.62499990463257
 21
-6.244473789240608
 31
0.0
  0
INSERT
  5
74
330
1F
100
AcDbEntity
  8
0
 62
     9
100
AcDbBlockReference
  2
_DOT
 10
24.62499990463257
 20
-6.244473789240608
 30
0.0
 41
2.5
 42
2.5
 50
68.56831805598857
  0
LINE
  5
75
330
1F
100
AcDbEntity
  8
0
  6
CONTINUOUS
 62
     3
100
AcDbLine
 10
13.92499990463256
 20
-8.644473789240598
 30
0.0
 11
13.92499990463256
 21
2.65552621075939
 31
0.0
  0
CIRCLE
  5
76
330
1F
100
AcDbEntity
  8
0
  6
CONTINUOUS
 62
     3
100
AcDbCircle
 10
-76.62500009536744
 20
-2.994473789240603
 30
0.0
 40
1.5
  0
CIRCLE
  5
77
330
1F
100
AcDbEntity
  8
0
  6
CONTINUOUS
 62
     3
100
AcDbCircle
 10
-76.62500009536744
 20
-2.994473789240603
 30
0.0
 40
6.5
  0
LINE
  5
78
330
1F
100
AcDbEntity
  8
0
  6
CONTINUOUS
 62
     3
100
AcDbLine
 10
-77.74303408411733
 20
-1.994473789240603
 30
0.0
 11
-75.50696610661755
 21
-1.994473789240603
 31
0.0
  0
CIRCLE
  5
79
330
1F
100
AcDbEntity
  8
0
  6
CONTINUOUS
 62
     3
100
AcDbCircle
 10
-76.62500009536744
 20
-2.994473789240603
 30
0.0
 40
3.0
  0
LINE
  5
7A
330
1F
100
AcDbEntity
  8
0
  6
CONTINUOUS
 62
     3
100
AcDbLine
 10
-8.925000095367437
 20
3.505526210759399
 30
0.0
 11
13.62499990463257
 21
3.505526210759399
 31
0.0
  0
LINE
  5
7B
330
1F
100
AcDbEntity
  8
0
  6
CONTINUOUS
 62
     3
100
AcDbLine
 10
-20.12500009536744
 20
-1.994473789240603
 30
0.0
 11
-20.12500009536744
 21
-4.494473789240603
 31
0.0
  0
LINE
  5
7C
330
1F
100
AcDbEntity
  8
0
  6
CONTINUOUS
 62
     3
100
AcDbLine
 10
-8.925000095367437
 20
-9.494473789240603
 30
0.0
 11
13.62499990463257
 21
-9.494473789240603
 31
0.0
  0
LINE
  5
7D
330
1F
100
AcDbEntity
  8
0
  6
CONTINUOUS
 62
     3
100
AcDbLine
 10
-20.12500009536744
 20
-1.994473789240603
 30
0.0
 11
-13.62500009536744
 21
-1.994473789240603
 31
0.0
  0
LINE
  5
7E
330
1F
100
AcDbEntity
  8
0
  6
CONTINUOUS
 62
     3
100
AcDbLine
 10
-9.12500009536744
 20
-9.294473789240604
 30
0.0
 11
-9.12500009536744
 21
3.305526210759396
 31
0.0
  0
LINE
  5
7F
330
1F
100
AcDbEntity
  8
0
  6
CONTINUOUS
 62
     3
100
AcDbLine
 10
-10.12500009536744
 20
-0.1944737892406057
 30
0.0
 11
-10.12500009536744
 21
-5.794473789240604
 31
0.0
  0
LINE
  5
80
330
1F
100
AcDbEntity
  8
0
  6
CONTINUOUS
 62
     3
100
AcDbLine
 10
-11.62500009536744
 20
-1.494473789240603
 30
0.0
 11
-12.75897469158301
 21
-1.494473789240603
 31
0.0
  0
LINE
  5
81
330
1F
100
AcDbEntity
  8
0
  6
CONTINUOUS
 62
     3
100
AcDbLine
 10
-11.62500009536744
 20
-4.494473789240603
 30
0.0
 11
-20.12500009536744
 21
-4.494473789240603
 31
0.0
  0
LINE
  5
82
330
1F
100
AcDbEntity
  8
0
  6
CONTINUOUS
 62
     3
100
AcDbLine
 10
13.72499990463256
 20
3.405526210759398
 30
0.0
 11
13.72499990463256
 21
-9.394473789240601
 31
0.0
  0
LINE
  5
83
330
1F
100
AcDbEntity
  8
0
  6
CONTINUOUS
 62
     3
100
AcDbLine
 10
-9.925000095367437
 20
0.0055262107593972
 30
0.0
 11
-9.12500009536744
 21
0.0055262107593972
 31
0.0
  0
LINE
  5
84
330
1F
100
AcDbEntity
  8
0
  6
CONTINUOUS
 62
     3
100
AcDbLine
 10
-10.12500009536744
 20
-0.1944737892406057
 30
0.0
 11
-9.925000095367437
 21
0.0055262107593972
 31
0.0
  0
LINE
  5
85
330
1F
100
AcDbEntity
  8
0
  6
CONTINUOUS
 62
     3
100
AcDbLine
 10
-9.925000095367437
 20
-5.994473789240603
 30
0.0
 11
-9.12500009536744
 21
-5.994473789240603
 31
0.0
  0
LINE
  5
86
330
1F
100
AcDbEntity
  8
0
  6
CONTINUOUS
 62
     3
100
AcDbLine
 10
-10.12500009536744
 20
-5.794473789240604
 30
0.0
 11
-9.925000095367437
 21
-5.994473789240603
 31
0.0
  0
LINE
  5
87
330
1F
100
AcDbEntity
  8
0
  6
CONTINUOUS
 62
     3
100
AcDbLine
 10
-11.62500009536744
 20
-0.2444737892406028
 30
0.0
 11
-11.62500009536744
 21
-5.744473789240603
 31
0.0
  0
LINE
  5
88
330
1F
100
AcDbEntity
  8
0
  6
CONTINUOUS
 62
     3
100
AcDbLine
 10
-10.12500009536744
 20
-0.2444737892406028
 30
0.0
 11
-11.62500009536744
 21
-0.2444737892406028
 31
0.0
  0
LINE
  5
89
330
1F
100
AcDbEntity
  8
0
  6
CONTINUOUS
 62
     3
100
AcDbLine
 10
-10.12500009536744
 20
-5.744473789240603
 30
0.0
 11
-11.62500009536744
 21
-5.744473789240603
 31
0.0
  0
LINE
  5
8A
330
1F
100
AcDbEntity
  8
0
  6
CONTINUOUS
 62
     3
100
AcDbLine
 10
13.62499990463257
 20
3.505526210759399
 30
0.0
 11
13.72499990463256
 21
3.405526210759398
 31
0.0
  0
LINE
  5
8B
330
1F
100
AcDbEntity
  8
0
  6
CONTINUOUS
 62
     3
100
AcDbLine
 10
13.62499990463257
 20
-9.494473789240603
 30
0.0
 11
13.72499990463256
 21
-9.394473789240601
 31
0.0
  0
LINE
  5
8C
330
1F
100
AcDbEntity
  8
0
  6
CONTINUOUS
 62
     3
100
AcDbLine
 10
-8.925000095367437
 20
3.505526210759399
 30
0.0
 11
-9.12500009536744
 21
3.305526210759396
 31
0.0
  0
LINE
  5
8D
330
1F
100
AcDbEntity
  8
0
  6
CONTINUOUS
 62
     3
100
AcDbLine
 10
-8.925000095367437
 20
-9.494473789240603
 30
0.0
 11
-9.12500009536744
 21
-9.294473789240604
 31
0.0
  0
LINE
  5
8E
330
1F
100
AcDbEntity
  8
0
  6
CONTINUOUS
 62
     3
100
AcDbLine
 10
13.72499990463256
 20
2.65552621075939
 30
0.0
 11
13.92499990463256
 21
2.65552621075939
 31
0.0
  0
LINE
  5
8F
330
1F
100
AcDbEntity
  8
0
  6
CONTINUOUS
 62
     3
100
AcDbLine
 10
13.72499990463256
 20
-8.644473789240598
 30
0.0
 11
13.92499990463256
 21
-8.644473789240598
 31
0.0
  0
LINE
  5
90
330
1F
100
AcDbEntity
  8
0
  6
CONTINUOUS
 62
     3
100
AcDbLine
 10
-13.62500009536744
 20
-1.994473789240603
 30
0.0
 11
-12.75897469158301
 21
-1.494473789240603
 31
0.0
  0
CIRCLE
  5
91
330
1F
100
AcDbEntity
  8
0
  6
CONTINUOUS
 62
     3
100
AcDbCircle
 10
-71.87500009536744
 20
-2.994473789240603
 30
0.0
 40
0.7850000000000001
  0
CIRCLE
  5
92
330
1F
100
AcDbEntity
  8
0
  6
CONTINUOUS
 62
     3
100
AcDbCircle
 10
-81.37500009536744
 20
-2.994473789240603
 30
0.0
 40
0.7850000000000001
  0
LINE
  5
93
330
1F
100
AcDbEntity
  8
0
  6
CONTINUOUS
 62
     3
100
AcDbLine
 10
41.02499990463254
 20
-9.494473789240599
 30
0.0
 11
14.12499990463257
 21
-9.494473789240599
 31
0.0
  0
LINE
  5
94
330
1F
100
AcDbEntity
  8
0
  6
CONTINUOUS
 62
     3
100
AcDbLine
 10
41.02499990463254
 20
-9.494473789240599
 30
0.0
 11
41.12499990463255
 21
-9.394473789240598
 31
0.0
  0
LINE
  5
95
330
1F
100
AcDbEntity
  8
0
  6
CONTINUOUS
 62
     3
100
AcDbLine
 10
13.92499990463256
 20
-9.2944737892406
 30
0.0
 11
14.12499990463257
 21
-9.494473789240599
 31
0.0
  0
LINE
  5
96
330
1F
100
AcDbEntity
  8
0
  6
CONTINUOUS
 62
     3
100
AcDbLine
 10
41.12499990463255
 20
-8.908076788100042
 30
0.0
 11
42.12499990463256
 21
-8.54410655383383
 31
0.0
  0
LINE
  5
97
330
1F
100
AcDbEntity
  8
0
  6
CONTINUOUS
 62
     3
100
AcDbLine
 10
46.12500009536743
 20
-7.294473675991748
 30
0.0
 11
46.12500009536743
 21
-6.994473675991751
 31
0.0
  0
LINE
  5
98
330
1F
100
AcDbEntity
  8
0
  6
CONTINUOUS
 62
     3
100
AcDbLine
 10
42.12499990463256
 20
-8.407721187855843
 30
0.0
 11
42.62499990463256
 21
-8.407721187855843
 31
0.0
  0
ELLIPSE
  5
99
330
1F
100
AcDbEntity
  8
0
  6
CONTINUOUS
 62
     3
100
AcDbEllipse
 10
42.62499990463256
 20
-8.207721187855844
 30
0.0
 11
0.3000000000000114
 21
0.0
 31
0.0
210
0.0
220
0.0
230
1.0
 40
0.6666666666666666
 41
4.712388980385356
 42
6.283185307179586
  0
LINE
  5
9A
330
1F
100
AcDbEntity
  8
0
  6
CONTINUOUS
 62
     3
100
AcDbLine
 10
42.12499990463256
 20
-4.299272624310648
 30
0.0
 11
42.92499990463256
 21
-4.299272624310648
 31
0.0
  0
LINE
  5
9B
330
1F
100
AcDbEntity
  8
0
  6
CONTINUOUS
 62
     3
100
AcDbLine
 10
13.92499990463256
 20
-9.2944737892406
 30
0.0
 11
13.92499990463256
 21
3.305526210759382
 31
0.0
  0
LINE
  5
9C
330
1F
100
AcDbEntity
  8
0
  6
CONTINUOUS
 62
     3
100
AcDbLine
 10
42.92499990463256
 20
-6.994473675991751
 30
0.0
 11
46.12500009536743
 21
-6.994473675991751
 31
0.0
  0
LINE
  5
9D
330
1F
100
AcDbEntity
  8
0
  6
CONTINUOUS
 62
     3
100
AcDbLine
 10
42.92499990463256
 20
-7.294473675991748
 30
0.0
 11
46.12500009536743
 21
-7.294473675991748
 31
0.0
  0
LINE
  5
9E
330
1F
100
AcDbEntity
  8
0
  6
CONTINUOUS
 62
     3
100
AcDbLine
 10
41.12499990463253
 20
3.405526210759398
 30
0.0
 11
41.12499990463255
 21
-9.394473789240598
 31
0.0
  0
LINE
  5
9F
330
1F
100
AcDbEntity
  8
0
  6
CONTINUOUS
 62
     3
100
AcDbLine
 10
42.12499990463256
 20
1.005526097510538
 30
0.0
 11
42.12499990463256
 21
-8.54410655383383
 31
0.0
  0
LINE
  5
A0
330
1F
100
AcDbEntity
  8
0
  6
CONTINUOUS
 62
     3
100
AcDbLine
 10
42.92499990463256
 20
-8.207721187855844
 30
0.0
 11
42.92499990463256
 21
2.218773609374642
 31
0.0
  0
LINE
  5
A1
330
1F
100
AcDbEntity
  8
0
  6
CONTINUOUS
 62
     3
100
AcDbLine
 10
41.02499990463252
 20
3.505526210759411
 30
0.0
 11
14.12499990463257
 21
3.505526210759371
 31
0.0
  0
LINE
  5
A2
330
1F
100
AcDbEntity
  8
0
  6
CONTINUOUS
 62
     3
100
AcDbLine
 10
41.02499990463254
 20
3.505526210759399
 30
0.0
 11
41.12499990463253
 21
3.405526210759398
 31
0.0
  0
LINE
  5
A3
330
1F
100
AcDbEntity
  8
0
  6
CONTINUOUS
 62
     3
100
AcDbLine
 10
13.92499990463256
 20
3.305526210759375
 30
0.0
 11
14.12499990463255
 21
3.505526210759371
 31
0.0
  0
LINE
  5
A4
330
1F
100
AcDbEntity
  8
0
  6
CONTINUOUS
 62
     3
100
AcDbLine
 10
46.12500009536742
 20
1.305526097510549
 30
0.0
 11
46.12500009536743
 21
1.005526097510552
 31
0.0
  0
LINE
  5
A5
330
1F
100
AcDbEntity
  8
0
  6
CONTINUOUS
 62
     3
100
AcDbLine
 10
42.12499990463256
 20
2.418773609374645
 30
0.0
 11
42.62499990463256
 21
2.418773609374645
 31
0.0
  0
ELLIPSE
  5
A6
330
1F
100
AcDbEntity
  8
0
  6
CONTINUOUS
 62
     3
100
AcDbEllipse
 10
42.62499990463256
 20
2.218773609374642
 30
0.0
 11
0.2999999999999972
 21
0.0
 31
0.0
210
0.0
220
0.0
230
1.0
 40
0.6666666666666666
 41
0.0000000000000019
 42
1.570796326794897
  0
LINE
  5
A7
330
1F
100
AcDbEntity
  8
0
  6
CONTINUOUS
 62
     3
100
AcDbLine
 10
42.12499990463256
 20
-1.689674954170558
 30
0.0
 11
42.92499990463256
 21
-1.689674954170558
 31
0.0
  0
LINE
  5
A8
330
1F
100
AcDbEntity
  8
0
  6
CONTINUOUS
 62
     3
100
AcDbLine
 10
42.92499990463256
 20
1.005526097510552
 30
0.0
 11
46.12500009536743
 21
1.005526097510552
 31
0.0
  0
LINE
  5
A9
330
1F
100
AcDbEntity
  8
0
  6
CONTINUOUS
 62
     3
100
AcDbLine
 10
42.92499990463256
 20
1.305526097510549
 30
0.0
 11
46.12500009536742
 21
1.305526097510549
 31
0.0
  0
LINE
  5
AA
330
1F
100
AcDbEntity
  8
0
  6
CONTINUOUS
 62
     3
100
AcDbLine
 10
41.12499990463253
 20
2.93789353497462
 30
0.0
 11
42.12499990463256
 21
2.761566554266153
 31
0.0
  0
CIRCLE
  5
AB
330
1F
100
AcDbEntity
  8
0
  6
CONTINUOUS
 62
     3
100
AcDbCircle
 10
82.62500009536743
 20
-2.994473789240617
 30
0.0
 40
6.5
  0
LINE
  5
AC
330
1F
100
AcDbEntity
  8
0
  6
CONTINUOUS
 62
     3
100
AcDbLine
 10
83.97500009536742
 20
1.918773609374744
 30
0.0
 11
83.97500009536742
 21
1.055526210759423
 31
0.0
  0
LINE
  5
AD
330
1F
100
AcDbEntity
  8
0
  6
CONTINUOUS
 62
     3
100
AcDbLine
 10
81.27500009536743
 20
1.918773609374766
 30
0.0
 11
81.27500009536743
 21
1.055526210759423
 31
0.0
  0
ARC
  5
AE
330
1F
100
AcDbEntity
  8
0
  6
CONTINUOUS
 62
     3
100
AcDbCircle
 10
81.77500009536743
 20
1.055526210759423
 30
0.0
 40
0.5
100
AcDbArc
 50
180.0
 51
270.0
  0
ARC
  5
AF
330
1F
100
AcDbEntity
  8
0
  6
CONTINUOUS
 62
     3
100
AcDbCircle
 10
83.47500009536742
 20
1.055526210759423
 30
0.0
 40
0.5
100
AcDbArc
 50
270.0
 51
360.0
  0
LINE
  5
B0
330
1F
100
AcDbEntity
  8
0
  6
CONTINUOUS
 62
     3
100
AcDbLine
 10
81.27500009536743
 20
-7.044473789240657
 30
0.0
 11
81.27500009536743
 21
-7.907721187855858
 31
0.0
  0
ARC
  5
B1
330
1F
100
AcDbEntity
  8
0
  6
CONTINUOUS
 62
     3
100
AcDbCircle
 10
81.77500009536743
 20
-7.044473789240657
 30
0.0
 40
0.5
100
AcDbArc
 50
90.0
 51
180.0
  0
LINE
  5
B2
330
1F
100
AcDbEntity
  8
0
  6
CONTINUOUS
 62
     3
100
AcDbLine
 10
83.47500009536742
 20
-6.544473789240657
 30
0.0
 11
81.77500009536743
 21
-6.544473789240657
 31
0.0
  0
ARC
  5
B3
330
1F
100
AcDbEntity
  8
0
  6
CONTINUOUS
 62
     3
100
AcDbCircle
 10
83.47500009536742
 20
-7.044473789240657
 30
0.0
 40
0.5
100
AcDbArc
 50
0.0
 51
90.00000000000001
  0
LINE
  5
B4
330
1F
100
AcDbEntity
  8
0
  6
CONTINUOUS
 62
     3
100
AcDbLine
 10
83.97500009536742
 20
-7.044473789240657
 30
0.0
 11
83.97500009536742
 21
-7.907721187855836
 31
0.0
  0
ARC
  5
B5
330
1F
100
AcDbEntity
  8
0
  6
CONTINUOUS
 62
     3
100
AcDbCircle
 10
80.77500009536743
 20
-7.907721187855858
 30
0.0
 40
0.5
100
AcDbArc
 50
249.3669858713359
 51
360.0
  0
ARC
  5
B6
330
1F
100
AcDbEntity
  8
0
  6
CONTINUOUS
 62
     3
100
AcDbCircle
 10
84.47500009536742
 20
-7.907721187855836
 30
0.0
 40
0.5
100
AcDbArc
 50
180.0
 51
290.6330141286648
  0
ARC
  5
B7
330
1F
100
AcDbEntity
  8
0
  6
CONTINUOUS
 62
     3
100
AcDbCircle
 10
80.77500009536743
 20
1.918773609374766
 30
0.0
 40
0.5
100
AcDbArc
 50
0.0
 51
110.6330141286641
  0
ARC
  5
B8
330
1F
100
AcDbEntity
  8
0
  6
CONTINUOUS
 62
     3
100
AcDbCircle
 10
84.47500009536742
 20
1.918773609374744
 30
0.0
 40
0.5
100
AcDbArc
 50
69.36698587133522
 51
180.0
  0
CIRCLE
  5
B9
330
1F
100
AcDbEntity
  8
0
  6
CONTINUOUS
 62
     3
100
AcDbCircle
 10
80.12500009536743
 20
-5.994473789240617
 30
0.0
 40
1.0
  0
LINE
  5
BA
330
1F
100
AcDbEntity
  8
0
  6
CONTINUOUS
 62
     3
100
AcDbLine
 10
80.32500009536742
 20
-6.19447378924062
 30
0.0
 11
80.32500009536742
 21
-6.974269686353891
 31
0.0
  0
LINE
  5
BB
330
1F
100
AcDbEntity
  8
0
  6
CONTINUOUS
 62
     3
100
AcDbLine
 10
79.92500009536744
 20
-6.19447378924062
 30
0.0
 11
79.92500009536744
 21
-6.974269686353891
 31
0.0
  0
LINE
  5
BC
330
1F
100
AcDbEntity
  8
0
  6
CONTINUOUS
 62
     3
100
AcDbLine
 10
81.10479599248069
 20
-6.19447378924062
 30
0.0
 11
80.32500009536742
 21
-6.19447378924062
 31
0.0
  0
LINE
  5
BD
330
1F
100
AcDbEntity
  8
0
  6
CONTINUOUS
 62
     3
100
AcDbLine
 10
81.10479599248069
 20
-5.794473789240621
 30
0.0
 11
80.32500009536742
 21
-5.794473789240618
 31
0.0
  0
LINE
  5
BE
330
1F
100
AcDbEntity
  8
0
  6
CONTINUOUS
 62
     3
100
AcDbLine
 10
80.32500009536742
 20
-5.014677892127347
 30
0.0
 11
80.32500009536742
 21
-5.794473789240618
 31
0.0
  0
LINE
  5
BF
330
1F
100
AcDbEntity
  8
0
  6
CONTINUOUS
 62
     3
100
AcDbLine
 10
79.92500009536744
 20
-5.014677892127347
 30
0.0
 11
79.92500009536744
 21
-5.794473789240618
 31
0.0
  0
LINE
  5
C0
330
1F
100
AcDbEntity
  8
0
  6
CONTINUOUS
 62
     3
100
AcDbLine
 10
79.92500009536744
 20
-6.19447378924062
 30
0.0
 11
79.14520419825414
 21
-6.19447378924062
 31
0.0
  0
LINE
  5
C1
330
1F
100
AcDbEntity
  8
0
  6
CONTINUOUS
 62
     3
100
AcDbLine
 10
79.92500009536744
 20
-5.794473789240618
 30
0.0
 11
79.14520419825414
 21
-5.794473789240618
 31
0.0
  0
LINE
  5
C2
330
1F
100
AcDbEntity
  8
0
  6
CONTINUOUS
 62
     3
100
AcDbLine
 10
81.77500009536743
 20
0.5555262107594228
 30
0.0
 11
83.47500009536742
 21
0.5555262107594228
 31
0.0
  0
LINE
  5
C3
330
1F
100
AcDbEntity
  8
0
  6
CONTINUOUS
 62
     3
100
AcDbLine
 10
88.22500009536739
 20
-1.689674954170366
 30
0.0
 11
88.22500009536739
 21
-4.299272624310591
 31
0.0
  0
LINE
  5
C4
330
1F
100
AcDbEntity
  8
0
  6
CONTINUOUS
 62
     3
100
AcDbLine
 10
77.0250000953674
 20
-1.689674954170615
 30
0.0
 11
77.0250000953674
 21
-4.299272624310342
 31
0.0
  0
ARC
  5
C5
330
1F
100
AcDbEntity
  8
0
  6
CONTINUOUS
 62
     3
100
AcDbCircle
 10
82.6250000953674
 20
-2.994473789240546
 30
0.0
 40
5.75
100
AcDbArc
 50
193.1158971959657
 51
249.3669858713359
  0
ARC
  5
C6
330
1F
100
AcDbEntity
  8
0
  6
CONTINUOUS
 62
     3
100
AcDbCircle
 10
82.6250000953674
 20
-2.994473789240546
 30
0.0
 40
5.75
100
AcDbArc
 50
110.6330141286641
 51
166.8841028040324
  0
ARC
  5
C7
330
1F
100
AcDbEntity
  8
0
  6
CONTINUOUS
 62
     3
100
AcDbCircle
 10
82.6250000953674
 20
-2.994473789240546
 30
0.0
 40
5.75
100
AcDbArc
 50
290.6330141286648
 51
346.8841028040325
  0
ARC
  5
C8
330
1F
100
AcDbEntity
  8
0
  6
CONTINUOUS
 62
     3
100
AcDbCircle
 10
82.6250000953674
 20
-2.994473789240546
 30
0.0
 40
5.75
100
AcDbArc
 50
13.11589719596953
 51
69.36698587133522
  0
ELLIPSE
  5
C9
330
1F
100
AcDbEntity
  8
LAYER0001
  6
CONTINUOUS
 62
     3
100
AcDbEllipse
 10
12.22499990463256
 20
-6.244473789240638
 30
0.0
 11
1.35
 21
0.0
 31
0.0
210
0.0
220
0.0
230
1.0
 40
0.7741786567551693
 41
0.0
 42
6.283185307179586
  0
LINE
  5
CA
330
1F
100
AcDbEntity
  8
LAYER0001
  6
CONTINUOUS
 62
     3
100
AcDbLine
 10
11.47012114291017
 20
-6.828884815003891
 30
0.0
 11
12.22499990463256
 21
-6.244473789240638
 31
0.0
  0
LINE
  5
CB
330
1F
100
AcDbEntity
  8
LAYER0001
  6
CONTINUOUS
 62
     3
100
AcDbLine
 10
12.97987866635497
 20
-6.828884815003891
 30
0.0
 11
12.22499990463256
 21
-6.244473789240638
 31
0.0
  0
LINE
  5
CC
330
1F
100
AcDbEntity
  8
LAYER0001
  6
CONTINUOUS
 62
     3
100
AcDbLine
 10
11.47012114291017
 20
-5.660062763477386
 30
0.0
 11
12.22499990463256
 21
-6.244473789240638
 31
0.0
  0
LINE
  5
CD
330
1F
100
AcDbEntity
  8
LAYER0001
  6
CONTINUOUS
 62
     3
100
AcDbLine
 10
12.97987866635497
 20
-5.660062763477386
 30
0.0
 11
12.22499990463256
 21
-6.244473789240638
 31
0.0
  0
LINE
  5
CE
330
1F
100
AcDbEntity
  8
LAYER0064
  6
CONTINUOUS
 62
     3
100
AcDbLine
 10
42.12499990463256
 20
2.761566554266153
 30
0.0
 11
42.12499990463256
 21
-7.294473675991748
 31
0.0
  0
LINE
  5
CF
330
1F
100
AcDbEntity
  8
LAYER0064
  6
CONTINUOUS
 62
     3
100
AcDbLine
 10
83.52500009536743
 20
1.005526210759504
 30
0.0
 11
81.72500009536742
 21
1.00552621075949
 31
0.0
  0
LINE
  5
D0
330
1F
100
AcDbEntity
  8
LAYER0064
  6
CONTINUOUS
 62
     3
100
AcDbLine
 10
83.52500009536743
 20
1.505526210759504
 30
0.0
 11
81.72500009536742
 21
1.505526210759504
 31
0.0
  0
LINE
  5
D1
330
1F
100
AcDbEntity
  8
LAYER0064
  6
CONTINUOUS
 62
     3
100
AcDbLine
 10
83.52500009536743
 20
1.505526210759504
 30
0.0
 11
83.52500009536743
 21
1.005526210759497
 31
0.0
  0
LINE
  5
D2
330
1F
100
AcDbEntity
  8
LAYER0064
  6
CONTINUOUS
 62
     3
100
AcDbLine
 10
81.72500009536742
 20
1.505526210759504
 30
0.0
 11
81.72500009536742
 21
1.005526210759504
 31
0.0
  0
CIRCLE
  5
D3
330
1F
100
AcDbEntity
  8
LAYER0064
  6
CONTINUOUS
 62
     3
100
AcDbCircle
 10
82.6250000953674
 20
-2.994473789240468
 30
0.0
 40
5.95000000000001
  0
LINE
  5
D4
330
1F
100
AcDbEntity
  8
LAYER0064
  6
CONTINUOUS
 62
     3
100
AcDbLine
 10
81.72500009536734
 20
-6.994473789240475
 30
0.0
 11
83.52500009536735
 21
-6.994473789240468
 31
0.0
  0
LINE
  5
D5
330
1F
100
AcDbEntity
  8
LAYER0064
  6
CONTINUOUS
 62
     3
100
AcDbLine
 10
81.72500009536734
 20
-7.494473789240475
 30
0.0
 11
83.52500009536735
 21
-7.494473789240475
 31
0.0
  0
LINE
  5
D6
330
1F
100
AcDbEntity
  8
LAYER0064
  6
CONTINUOUS
 62
     3
100
AcDbLine
 10
81.72500009536734
 20
-7.494473789240475
 30
0.0
 11
81.72500009536734
 21
-6.994473789240471
 31
0.0
  0
LINE
  5
D7
330
1F
100
AcDbEntity
  8
LAYER0064
  6
CONTINUOUS
 62
     3
100
AcDbLine
 10
83.52500009536735
 20
-7.494473789240475
 30
0.0
 11
83.52500009536735
 21
-6.994473789240475
 31
0.0
  0
LINE
  5
D8
330
1F
100
AcDbEntity
  8
0
  6
CONTINUOUS
 62
     9
100
AcDbLine
 10
-81.37500009536744
 20
-0.4944737892406028
 30
0.0
 11
-81.37500009536744
 21
12.20552621075939
 31
0.0
  0
LINE
  5
D9
330
1F
100
AcDbEntity
  8
0
  6
CONTINUOUS
 62
     9
100
AcDbLine
 10
-71.87500009536744
 20
-0.4944737892406028
 30
0.0
 11
-71.87500009536744
 21
12.20552621075938
 31
0.0
  0
LINE
  5
DA
330
1F
100
AcDbEntity
  8
0
  6
CONTINUOUS
 62
     9
100
AcDbLine
 10
-81.37500009536744
 20
11.50552621075939
 30
0.0
 11
-71.87500009536744
 21
11.50552621075939
 31
0.0
  0
LINE
  5
DB
330
1F
100
AcDbEntity
  8
0
  6
CONTINUOUS
 62
     9
100
AcDbLine
 10
-21.12500009536744
 20
-4.494473789240603
 30
0.0
 11
-31.12500009536744
 21
-4.494473789240603
 31
0.0
  0
LINE
  5
DC
330
1F
100
AcDbEntity
  8
0
  6
CONTINUOUS
 62
     9
100
AcDbLine
 10
-21.12500009536744
 20
-1.994473789240603
 30
0.0
 11
-31.12500009536744
 21
-1.994473789240603
 31
0.0
  0
LINE
  5
DD
330
1F
100
AcDbEntity
  8
0
  6
CONTINUOUS
 62
     9
100
AcDbLine
 10
-30.12500009536744
 20
-4.494473789240603
 30
0.0
 11
-30.12500009536744
 21
-1.994473789240603
 31
0.0
  0
LINE
  5
DE
330
1F
100
AcDbEntity
  8
0
  6
CONTINUOUS
 62
     9
100
AcDbLine
 10
-21.12500009536744
 20
-4.494473789240603
 30
0.0
 11
-41.12500009536744
 21
-4.494473789240603
 31
0.0
  0
LINE
  5
DF
330
1F
100
AcDbEntity
  8
0
  6
CONTINUOUS
 62
     9
100
AcDbLine
 10
-13.75897469158301
 20
-1.494473789240603
 30
0.0
 11
-41.12500009536744
 21
-1.494473789240603
 31
0.0
  0
LINE
  5
E0
330
1F
100
AcDbEntity
  8
0
  6
CONTINUOUS
 62
     9
100
AcDbLine
 10
-40.12500009536744
 20
-4.494473789240603
 30
0.0
 11
-40.12500009536744
 21
-1.494473789240603
 31
0.0
  0
LINE
  5
E1
330
1F
100
AcDbEntity
  8
0
  6
CONTINUOUS
 62
     9
100
AcDbLine
 10
-10.92500009536744
 20
-5.994473789240603
 30
0.0
 11
-51.12500009536744
 21
-5.994473789240603
 31
0.0
  0
LINE
  5
E2
330
1F
100
AcDbEntity
  8
0
  6
CONTINUOUS
 62
     9
100
AcDbLine
 10
-10.92500009536744
 20
0.0055262107593972
 30
0.0
 11
-51.12500009536744
 21
0.0055262107593972
 31
0.0
  0
LINE
  5
E3
330
1F
100
AcDbEntity
  8
0
  6
CONTINUOUS
 62
     9
100
AcDbLine
 10
-50.12500009536744
 20
-5.994473789240603
 30
0.0
 11
-50.12500009536744
 21
0.0055262107593972
 31
0.0
  0
LINE
  5
E4
330
1F
100
AcDbEntity
  8
0
  6
CONTINUOUS
 62
     9
100
AcDbLine
 10
-9.925000095367437
 20
-9.494473789240603
 30
0.0
 11
-61.12500009536744
 21
-9.494473789240603
 31
0.0
  0
LINE
  5
E5
330
1F
100
AcDbEntity
  8
0
  6
CONTINUOUS
 62
     9
100
AcDbLine
 10
-9.925000095367437
 20
3.505526210759399
 30
0.0
 11
-61.12500009536744
 21
3.505526210759399
 31
0.0
  0
LINE
  5
E6
330
1F
100
AcDbEntity
  8
0
  6
CONTINUOUS
 62
     9
100
AcDbLine
 10
-60.12500009536744
 20
-9.494473789240603
 30
0.0
 11
-60.12500009536744
 21
3.505526210759399
 31
0.0
  0
LINE
  5
E7
330
1F
100
AcDbEntity
  8
0
  6
CONTINUOUS
 62
     9
100
AcDbLine
 10
-10.12500009536744
 20
0.7555262107593972
 30
0.0
 11
-10.12500009536744
 21
12.20552621075938
 31
0.0
  0
LINE
  5
E8
330
1F
100
AcDbEntity
  8
0
  6
CONTINUOUS
 62
     9
100
AcDbLine
 10
-10.12500009536744
 20
11.50552621075939
 30
0.0
 11
-9.12500009536744
 21
11.50552621075939
 31
0.0
  0
LINE
  5
E9
330
1F
100
AcDbEntity
  8
0
  6
CONTINUOUS
 62
     9
100
AcDbLine
 10
-20.12500009536744
 20
-0.9944737892406028
 30
0.0
 11
-20.12500009536744
 21
23.5055262107594
 31
0.0
  0
LINE
  5
EA
330
1F
100
AcDbEntity
  8
0
  6
CONTINUOUS
 62
     9
100
AcDbLine
 10
-13.62500009536744
 20
-0.9944737892406028
 30
0.0
 11
-13.62500009536744
 21
20.2055262107594
 31
0.0
  0
LINE
  5
EB
330
1F
100
AcDbEntity
  8
0
  6
CONTINUOUS
 62
     9
100
AcDbLine
 10
-20.12500009536744
 20
19.5055262107594
 30
0.0
 11
-13.62500009536744
 21
19.5055262107594
 31
0.0
  0
LINE
  5
EC
330
1F
100
AcDbEntity
  8
0
  6
CONTINUOUS
 62
     9
100
AcDbLine
 10
13.92499990463256
 20
4.305526210759375
 30
0.0
 11
13.92499990463256
 21
20.2055262107594
 31
0.0
  0
LINE
  5
ED
330
1F
100
AcDbEntity
  8
0
  6
CONTINUOUS
 62
     9
100
AcDbLine
 10
-9.12500009536744
 20
4.305526210759396
 30
0.0
 11
-9.12500009536744
 21
28.20552621075938
 31
0.0
  0
LINE
  5
EE
330
1F
100
AcDbEntity
  8
0
  6
CONTINUOUS
 62
     9
100
AcDbLine
 10
42.12499990463256
 20
3.761566554266153
 30
0.0
 11
42.12499990463256
 21
20.2055262107594
 31
0.0
  0
LINE
  5
EF
330
1F
100
AcDbEntity
  8
0
  6
CONTINUOUS
 62
     9
100
AcDbLine
 10
42.92499990463256
 20
3.218773609374642
 30
0.0
 11
42.92499990463256
 21
28.20552621075938
 31
0.0
  0
LINE
  5
F0
330
1F
100
AcDbEntity
  8
0
  6
CONTINUOUS
 62
     9
100
AcDbLine
 10
42.12499990463256
 20
19.5055262107594
 30
0.0
 11
42.92499990463256
 21
19.5055262107594
 31
0.0
  0
LINE
  5
F1
330
1F
100
AcDbEntity
  8
0
  6
CONTINUOUS
 62
     9
100
AcDbLine
 10
-20.12500009536744
 20
-0.9944737892406028
 30
0.0
 11
-20.12500009536744
 21
28.20552621075939
 31
0.0
  0
LINE
  5
F2
330
1F
100
AcDbEntity
  8
0
  6
CONTINUOUS
 62
     9
100
AcDbLine
 10
-9.12500009536744
 20
4.305526210759396
 30
0.0
 11
-9.12500009536744
 21
28.20552621075938
 31
0.0
  0
LINE
  5
F3
330
1F
100
AcDbEntity
  8
0
  6
CONTINUOUS
 62
     9
100
AcDbLine
 10
42.92499990463256
 20
3.218773609374642
 30
0.0
 11
42.92499990463256
 21
28.20552621075938
 31
0.0
  0
LINE
  5
F4
330
1F
100
AcDbEntity
  8
0
  6
CONTINUOUS
 62
     9
100
AcDbLine
 10
42.12499990463256
 20
-9.022475056242488
 30
0.0
 11
42.12499990463256
 21
-18.4944737892406
 31
0.0
  0
LINE
  5
F5
330
1F
100
AcDbEntity
  8
0
  6
CONTINUOUS
 62
     9
100
AcDbLine
 10
46.12500009536743
 20
-7.962977151484958
 30
0.0
 11
46.12500009536743
 21
-18.4944737892406
 31
0.0
  0
LINE
  5
F6
330
1F
100
AcDbEntity
  8
0
  6
CONTINUOUS
 62
     9
100
AcDbLine
 10
42.12499990463256
 20
-17.4944737892406
 30
0.0
 11
46.12500009536743
 21
-17.4944737892406
 31
0.0
  0
LINE
  5
F7
330
1F
100
AcDbEntity
  8
0
  6
CONTINUOUS
 62
     9
100
AcDbLine
 10
-9.12500009536744
 20
-10.29447378924061
 30
0.0
 11
-9.12500009536744
 21
-18.4944737892406
 31
0.0
  0
LINE
  5
F8
330
1F
100
AcDbEntity
  8
0
  6
CONTINUOUS
 62
     9
100
AcDbLine
 10
-11.62500009536744
 20
-6.744473789240603
 30
0.0
 11
-11.62500009536744
 21
-18.4944737892406
 31
0.0
  0
LINE
  5
F9
330
1F
100
AcDbEntity
  8
0
  6
CONTINUOUS
 62
     9
100
AcDbLine
 10
-11.62500009536744
 20
-17.4944737892406
 30
0.0
 11
-9.12500009536744
 21
-17.4944737892406
 31
0.0
  0
LINE
  5
FA
330
1F
100
AcDbEntity
  8
0
  6
CONTINUOUS
 62
     9
100
AcDbLine
 10
53.14463688822762
 20
-17.4944737892406
 30
0.0
 11
76.12500009536743
 21
-17.4944737892406
 31
0.0
  0
LINE
  5
FB
330
1F
100
AcDbEntity
  8
0
  6
CONTINUOUS
 62
     9
100
AcDbLine
 10
-83.12500009536744
 20
-25.4944737892406
 30
0.0
 11
-14.70376662927706
 21
-25.4944737892406
 31
0.0
  0
LINE
  5
FC
330
1F
100
AcDbEntity
  8
0
  6
CONTINUOUS
 62
     9
100
AcDbLine
 10
13.92411728206018
 20
-33.50552621075939
 30
0.0
 11
-32.83360164228011
 21
-33.50552621075939
 31
0.0
  0
LINE
  5
FD
330
1F
100
AcDbEntity
  8
0
  6
CONTINUOUS
 62
     9
100
AcDbLine
 10
0.1772199046325618
 20
19.5055262107594
 30
0.0
 11
-13.62500009536744
 21
19.5055262107594
 31
0.0
  0
INSERT
  5
FE
330
1F
100
AcDbEntity
  8
0
 62
     9
100
AcDbBlockReference
  2
_OPEN30
 10
-13.62500009536744
 20
19.5055262107594
 30
0.0
 41
3.000002787824364
 42
2.999989273978464
 50
180.0
  0
LINE
  5
FF
330
1F
100
AcDbEntity
  8
0
  6
CONTINUOUS
 62
     9
100
AcDbLine
 10
-24.84175751377686
 20
19.5055262107594
 30
0.0
 11
-20.12500009536744
 21
19.5055262107594
 31
0.0
  0
INSERT
  5
100
330
1F
100
AcDbEntity
  8
0
 62
     9
100
AcDbBlockReference
  2
_OPEN30
 10
-20.12500009536744
 20
19.5055262107594
 30
0.0
 41
3.000002787824364
 42
2.999989273978464
 50
360.0
  0
LINE
  5
101
330
1F
100
AcDbEntity
  8
0
  6
CONTINUOUS
 62
     9
100
AcDbLine
 10
-60.12500009536744
 20
-14.4944737892406
 30
0.0
 11
-60.12500009536744
 21
-9.494473789240603
 31
0.0
  0
INSERT
  5
102
330
1F
100
AcDbEntity
  8
0
 62
     9
100
AcDbBlockReference
  2
_OPEN30
 10
-60.12500009536744
 20
-9.494473789240603
 30
0.0
 41
3.000002787824364
 42
2.999989273978464
 50
90.0
  0
LINE
  5
103
330
1F
100
AcDbEntity
  8
0
  6
CONTINUOUS
 62
     9
100
AcDbLine
 10
-60.12500009536744
 20
8.505526210759399
 30
0.0
 11
-60.12500009536744
 21
3.505526210759399
 31
0.0
  0
INSERT
  5
104
330
1F
100
AcDbEntity
  8
0
 62
     9
100
AcDbBlockReference
  2
_OPEN30
 10
-60.12500009536744
 20
3.505526210759399
 30
0.0
 41
3.000002787824364
 42
2.999989273978464
 50
270.0
  0
LINE
  5
105
330
1F
100
AcDbEntity
  8
0
  6
CONTINUOUS
 62
     9
100
AcDbLine
 10
-50.12500009536744
 20
25.3855262107594
 30
0.0
 11
-50.12500009536744
 21
0.0055262107593972
 31
0.0
  0
INSERT
  5
106
330
1F
100
AcDbEntity
  8
0
 62
     9
100
AcDbBlockReference
  2
_OPEN30
 10
-50.12500009536744
 20
0.0055262107593972
 30
0.0
 41
3.000002787824364
 42
2.999989273978464
 50
270.0
  0
LINE
  5
107
330
1F
100
AcDbEntity
  8
0
  6
CONTINUOUS
 62
     9
100
AcDbLine
 10
-50.12500009536744
 20
-10.9944737892406
 30
0.0
 11
-50.12500009536744
 21
-5.994473789240603
 31
0.0
  0
INSERT
  5
108
330
1F
100
AcDbEntity
  8
0
 62
     9
100
AcDbBlockReference
  2
_OPEN30
 10
-50.12500009536744
 20
-5.994473789240603
 30
0.0
 41
3.000002787824364
 42
2.999989273978464
 50
90.0
  0
LINE
  5
109
330
1F
100
AcDbEntity
  8
0
  6
CONTINUOUS
 62
     9
100
AcDbLine
 10
-40.12500009536744
 20
25.3855262107594
 30
0.0
 11
-40.12500009536744
 21
-1.494473789240603
 31
0.0
  0
INSERT
  5
10A
330
1F
100
AcDbEntity
  8
0
 62
     9
100
AcDbBlockReference
  2
_OPEN30
 10
-40.12500009536744
 20
-1.494473789240603
 30
0.0
 41
3.000002787824364
 42
2.999989273978464
 50
270.0
  0
LINE
  5
10B
330
1F
100
AcDbEntity
  8
0
  6
CONTINUOUS
 62
     9
100
AcDbLine
 10
-40.12500009536744
 20
-9.494473789240603
 30
0.0
 11
-40.12500009536744
 21
-4.494473789240603
 31
0.0
  0
INSERT
  5
10C
330
1F
100
AcDbEntity
  8
0
 62
     9
100
AcDbBlockReference
  2
_OPEN30
 10
-40.12500009536744
 20
-4.494473789240603
 30
0.0
 41
3.000002787824364
 42
2.999989273978464
 50
90.0
  0
LINE
  5
10D
330
1F
100
AcDbEntity
  8
0
  6
CONTINUOUS
 62
     9
100
AcDbLine
 10
-30.12500009536744
 20
26.50552621075941
 30
0.0
 11
-30.12500009536744
 21
-1.994473789240603
 31
0.0
  0
INSERT
  5
10E
330
1F
100
AcDbEntity
  8
0
 62
     9
100
AcDbBlockReference
  2
_OPEN30
 10
-30.12500009536744
 20
-1.994473789240603
 30
0.0
 41
3.000002787824364
 42
2.999989273978464
 50
270.0
  0
LINE
  5
10F
330
1F
100
AcDbEntity
  8
0
  6
CONTINUOUS
 62
     9
100
AcDbLine
 10
-30.12500009536744
 20
-9.494473789240603
 30
0.0
 11
-30.12500009536744
 21
-4.494473789240603
 31
0.0
  0
INSERT
  5
110
330
1F
100
AcDbEntity
  8
0
 62
     9
100
AcDbBlockReference
  2
_OPEN30
 10
-30.12500009536744
 20
-4.494473789240603
 30
0.0
 41
3.000002787824364
 42
2.999989273978464
 50
90.0
  0
LINE
  5
111
330
1F
100
AcDbEntity
  8
0
  6
CONTINUOUS
 62
     9
100
AcDbLine
 10
57.42277990463256
 20
19.5055262107594
 30
0.0
 11
42.92499990463256
 21
19.5055262107594
 31
0.0
  0
INSERT
  5
112
330
1F
100
AcDbEntity
  8
0
 62
     9
100
AcDbBlockReference
  2
_OPEN30
 10
42.92499990463256
 20
19.5055262107594
 30
0.0
 41
3.000002787824364
 42
2.999989273978464
 50
180.0
  0
LINE
  5
113
330
1F
100
AcDbEntity
  8
0
  6
CONTINUOUS
 62
     9
100
AcDbLine
 10
51.12500009536743
 20
-17.4944737892406
 30
0.0
 11
46.12500009536743
 21
-17.4944737892406
 31
0.0
  0
INSERT
  5
114
330
1F
100
AcDbEntity
  8
0
 62
     9
100
AcDbBlockReference
  2
_OPEN30
 10
46.12500009536743
 20
-17.4944737892406
 30
0.0
 41
3.000002787824364
 42
2.999989273978464
 50
180.0
  0
LINE
  5
115
330
1F
100
AcDbEntity
  8
0
  6
CONTINUOUS
 62
     9
100
AcDbLine
 10
37.12499990463256
 20
-17.4944737892406
 30
0.0
 11
42.12499990463256
 21
-17.4944737892406
 31
0.0
  0
INSERT
  5
116
330
1F
100
AcDbEntity
  8
0
 62
     9
100
AcDbBlockReference
  2
_OPEN30
 10
42.12499990463256
 20
-17.4944737892406
 30
0.0
 41
3.000002787824364
 42
2.999989273978464
 50
360.0
  0
LINE
  5
117
330
1F
100
AcDbEntity
  8
0
  6
CONTINUOUS
 62
     9
100
AcDbLine
 10
11.77277990463256
 20
-17.4944737892406
 30
0.0
 11
-9.12500009536744
 21
-17.4944737892406
 31
0.0
  0
INSERT
  5
118
330
1F
100
AcDbEntity
  8
0
 62
     9
100
AcDbBlockReference
  2
_OPEN30
 10
-9.12500009536744
 20
-17.4944737892406
 30
0.0
 41
3.000002787824364
 42
2.999989273978464
 50
180.0
  0
LINE
  5
119
330
1F
100
AcDbEntity
  8
0
  6
CONTINUOUS
 62
     9
100
AcDbLine
 10
-16.62500009536744
 20
-17.4944737892406
 30
0.0
 11
-11.62500009536744
 21
-17.4944737892406
 31
0.0
  0
INSERT
  5
11A
330
1F
100
AcDbEntity
  8
0
 62
     9
100
AcDbBlockReference
  2
_OPEN30
 10
-11.62500009536744
 20
-17.4944737892406
 30
0.0
 41
3.000002787824364
 42
2.999989273978464
 50
360.0
  0
LINE
  5
11B
330
1F
100
AcDbEntity
  8
0
  6
CONTINUOUS
 62
     9
100
AcDbLine
 10
-1.02722009536744
 20
11.50552621075939
 30
0.0
 11
-9.12500009536744
 21
11.50552621075939
 31
0.0
  0
INSERT
  5
11C
330
1F
100
AcDbEntity
  8
0
 62
     9
100
AcDbBlockReference
  2
_OPEN30
 10
-9.12500009536744
 20
11.50552621075939
 30
0.0
 41
3.000002787824364
 42
2.999989273978464
 50
180.0
  0
LINE
  5
11D
330
1F
100
AcDbEntity
  8
0
  6
CONTINUOUS
 62
     9
100
AcDbLine
 10
-15.12500009536744
 20
11.50552621075939
 30
0.0
 11
-10.12500009536744
 21
11.50552621075939
 31
0.0
  0
INSERT
  5
11E
330
1F
100
AcDbEntity
  8
0
 62
     9
100
AcDbBlockReference
  2
_OPEN30
 10
-10.12500009536744
 20
11.50552621075939
 30
0.0
 41
3.000002787824364
 42
2.999989273978464
 50
360.0
  0
LINE
  5
11F
330
1F
100
AcDbEntity
  8
0
  6
CONTINUOUS
 62
     9
100
AcDbLine
 10
-86.37500009536744
 20
11.50552621075939
 30
0.0
 11
-81.37500009536744
 21
11.50552621075939
 31
0.0
  0
INSERT
  5
120
330
1F
100
AcDbEntity
  8
0
 62
     9
100
AcDbBlockReference
  2
_OPEN30
 10
-81.37500009536744
 20
11.50552621075939
 30
0.0
 41
3.000002787824364
 42
2.999989273978464
 50
360.0
  0
LINE
  5
121
330
1F
100
AcDbEntity
  8
0
  6
CONTINUOUS
 62
     9
100
AcDbLine
 10
-66.87500009536744
 20
11.50552621075938
 30
0.0
 11
-71.87500009536744
 21
11.50552621075939
 31
0.0
  0
INSERT
  5
122
330
1F
100
AcDbEntity
  8
0
 62
     9
100
AcDbBlockReference
  2
_OPEN30
 10
-71.87500009536744
 20
11.50552621075939
 30
0.0
 41
3.000002787824364
 42
2.999989273978464
 50
180.0
  0
LINE
  5
123
330
1F
100
AcDbEntity
  8
0
  6
CONTINUOUS
 62
     9
100
AcDbLine
 10
13.92499990463256
 20
19.5055262107594
 30
0.0
 11
42.12499990463256
 21
19.5055262107594
 31
0.0
  0
INSERT
  5
124
330
1F
100
AcDbEntity
  8
0
 62
     9
100
AcDbBlockReference
  2
_OPEN30
 10
13.92499990463256
 20
19.5055262107594
 30
0.0
 41
3.000002787824364
 42
2.999989273978464
 50
180.0
  0
INSERT
  5
125
330
1F
100
AcDbEntity
  8
0
 62
     9
100
AcDbBlockReference
  2
_OPEN30
 10
42.12499990463256
 20
19.5055262107594
 30
0.0
 41
3.000002787824364
 42
2.999989273978464
 50
360.0
  0
LINE
  5
126
330
1F
100
AcDbEntity
  8
0
  6
CONTINUOUS
 62
     9
100
AcDbLine
 10
-20.12500009536744
 20
27.50552621075939
 30
0.0
 11
-9.12500009536744
 21
27.50552621075939
 31
0.0
  0
INSERT
  5
127
330
1F
100
AcDbEntity
  8
0
 62
     9
100
AcDbBlockReference
  2
_OPEN30
 10
-20.12500009536744
 20
27.50552621075939
 30
0.0
 41
3.000002787824364
 42
2.999989273978464
 50
180.0
  0
INSERT
  5
128
330
1F
100
AcDbEntity
  8
0
 62
     9
100
AcDbBlockReference
  2
_OPEN30
 10
-9.12500009536744
 20
27.50552621075939
 30
0.0
 41
3.000002787824364
 42
2.999989273978464
 50
360.0
  0
LINE
  5
129
330
1F
100
AcDbEntity
  8
0
  6
CONTINUOUS
 62
     9
100
AcDbLine
 10
-9.12500009536744
 20
27.50552621075939
 30
0.0
 11
42.92499990463256
 21
27.50552621075939
 31
0.0
  0
INSERT
  5
12A
330
1F
100
AcDbEntity
  8
0
 62
     9
100
AcDbBlockReference
  2
_OPEN30
 10
-9.12500009536744
 20
27.50552621075939
 30
0.0
 41
3.000002787824364
 42
2.999989273978464
 50
180.0
  0
INSERT
  5
12B
330
1F
100
AcDbEntity
  8
0
 62
     9
100
AcDbBlockReference
  2
_OPEN30
 10
42.92499990463256
 20
27.50552621075939
 30
0.0
 41
3.000002787824364
 42
2.999989273978464
 50
360.0
  0
LINE
  5
12C
330
1F
100
AcDbEntity
  8
0
  6
CENTER
 62
     9
100
AcDbLine
 10
90.12500009536743
 20
-2.994473789240468
 30
0.0
 11
75.12500009536737
 21
-2.994473789240468
 31
0.0
  0
LINE
  5
12D
330
1F
100
AcDbEntity
  8
0
  6
CENTER
 62
     9
100
AcDbLine
 10
82.6250000953674
 20
4.505526210759561
 30
0.0
 11
82.6250000953674
 21
-10.4944737892405
 31
0.0
  0
LINE
  5
12E
330
1F
100
AcDbEntity
  8
0
  6
CENTER
 62
     9
100
AcDbLine
 10
-69.12500009536744
 20
-2.994473789240603
 30
0.0
 11
-84.12500009536744
 21
-2.994473789240603
 31
0.0
  0
LINE
  5
12F
330
1F
100
AcDbEntity
  8
0
  6
CENTER
 62
     9
100
AcDbLine
 10
-76.62500009536744
 20
4.505526210759397
 30
0.0
 11
-76.62500009536744
 21
-10.4944737892406
 31
0.0
  0
TEXT
  5
130
330
1F
100
AcDbEntity
  8
0
 62
     7
100
AcDbText
 10
-86.08500009536743
 20
12.50552621075939
 30
0.0
 40
4.0
  1
9.5
 41
0.7999999999999995
  7
FDASTYLE0
 72
     5
 11
-76.48500009536744
 21
12.50552621075939
 31
0.0
100
AcDbText
  0
TEXT
  5
131
330
1F
100
AcDbEntity
  8
0
 62
     7
100
AcDbText
 10
-75.48500009536744
 20
15.10552621075939
 30
0.0
 40
2.6
  1
±0.2
 41
0.7619047619047612
  7
FDASTYLE0
 72
     5
 11
-67.16500009536745
 21
15.10552621075939
 31
0.0
100
AcDbText
  0
TEXT
  5
132
330
1F
100
AcDbEntity
  8
0
 62
     7
100
AcDbText
 10
-31.12500009536744
 20
4.505526210759399
 30
0.0
 40
4.0
  1
2.5
 50
90.0
 41
0.8000000000000002
  7
FDASTYLE0
 72
     5
 11
-31.12500009536744
 21
14.1055262107594
 31
0.0
100
AcDbText
  0
TEXT
  5
133
330
1F
100
AcDbEntity
  8
0
 62
     7
100
AcDbText
 10
-33.72500009536744
 20
15.1055262107594
 30
0.0
 40
2.6
  1
±0.15
 50
90.0
 41
0.7692307692307692
  7
FDASTYLE0
 72
     5
 11
-33.72500009536744
 21
25.5055262107594
 31
0.0
100
AcDbText
  0
TEXT
  5
134
330
1F
100
AcDbEntity
  8
0
 62
     7
100
AcDbText
 10
-41.12500009536744
 20
4.505526210759399
 30
0.0
 40
4.0
  1
φ3
 50
90.0
 41
0.7272727272727271
  7
FDASTYLE0
 72
     5
 11
-41.12500009536744
 21
10.9055262107594
 31
0.0
100
AcDbText
  0
TEXT
  5
135
330
1F
100
AcDbEntity
  8
0
 62
     7
100
AcDbText
 10
-43.72500009536743
 20
11.9055262107594
 30
0.0
 40
2.6
  1
+0.005
 50
90.0
 41
0.7999999999999999
  7
FDASTYLE0
 72
     5
 11
-43.72500009536743
 21
24.3855262107594
 31
0.0
100
AcDbText
  0
TEXT
  5
136
330
1F
100
AcDbEntity
  8
0
 62
     7
100
AcDbText
 10
-40.92500009536744
 20
11.9055262107594
 30
0.0
 40
2.6
  1
-0.015
 50
90.0
 41
0.7999999999999999
  7
FDASTYLE0
 72
     5
 11
-40.92500009536744
 21
24.3855262107594
 31
0.0
100
AcDbText
  0
TEXT
  5
137
330
1F
100
AcDbEntity
  8
0
 62
     7
100
AcDbText
 10
-51.12500009536744
 20
4.505526210759399
 30
0.0
 40
4.0
  1
φ6
 50
90.0
 41
0.7272727272727271
  7
FDASTYLE0
 72
     5
 11
-51.12500009536744
 21
10.9055262107594
 31
0.0
100
AcDbText
  0
TEXT
  5
138
330
1F
100
AcDbEntity
  8
0
 62
     7
100
AcDbText
 10
-53.72500009536743
 20
11.9055262107594
 30
0.0
 40
2.6
  1
+0.005
 50
90.0
 41
0.8000000000000002
  7
FDASTYLE0
 72
     5
 11
-53.72500009536743
 21
24.3855262107594
 31
0.0
100
AcDbText
  0
TEXT
  5
139
330
1F
100
AcDbEntity
  8
0
 62
     7
100
AcDbText
 10
-50.92500009536744
 20
11.9055262107594
 30
0.0
 40
2.6
  1
-0.030
 50
90.0
 41
0.8000000000000002
  7
FDASTYLE0
 72
     5
 11
-50.92500009536744
 21
24.3855262107594
 31
0.0
100
AcDbText
  0
TEXT
  5
13A
330
1F
100
AcDbEntity
  8
0
 62
     7
100
AcDbText
 10
-61.12500009536744
 20
-12.4544737892406
 30
0.0
 40
4.0
  1
φ13
 50
90.0
 41
0.7499999999999996
  7
FDASTYLE0
 72
     5
 11
-61.12500009536744
 21
-2.854473789240604
 31
0.0
100
AcDbText
  0
TEXT
  5
13B
330
1F
100
AcDbEntity
  8
0
 62
     7
100
AcDbText
 10
-63.72500009536743
 20
-1.854473789240604
 30
0.0
 40
2.6
  1
±0.2
 50
90.0
 41
0.7619047619047619
  7
FDASTYLE0
 72
     5
 11
-63.72500009536743
 21
6.465526210759396
 31
0.0
100
AcDbText
  0
TEXT
  5
13C
330
1F
100
AcDbEntity
  8
0
 62
     7
100
AcDbText
 10
-5.227220095367439
 20
12.50552621075939
 30
0.0
 40
4.0
  1
1
 41
0.8
  7
FDASTYLE0
 72
     5
 11
-2.027220095367439
 21
12.50552621075939
 31
0.0
100
AcDbText
  0
TEXT
  5
13D
330
1F
100
AcDbEntity
  8
0
 62
     7
100
AcDbText
 10
21.62499990463257
 20
20.5055262107594
 30
0.0
 40
4.0
  1
28.2
 41
0.7999999999999998
  7
FDASTYLE0
 72
     5
 11
34.42499990463256
 21
20.5055262107594
 31
0.0
100
AcDbText
  0
TEXT
  5
13E
330
1F
100
AcDbEntity
  8
0
 62
     7
100
AcDbText
 10
46.82277990463256
 20
20.5055262107594
 30
0.0
 40
4.0
  1
0.8
 41
0.8000000000000002
  7
FDASTYLE0
 72
     5
 11
56.42277990463256
 21
20.5055262107594
 31
0.0
100
AcDbText
  0
TEXT
  5
13F
330
1F
100
AcDbEntity
  8
0
 62
     7
100
AcDbText
 10
-17.82500009536744
 20
28.50552621075939
 30
0.0
 40
4.0
  1
11
 41
0.7999999999999998
  7
FDASTYLE0
 72
     5
 11
-11.42500009536744
 21
28.50552621075939
 31
0.0
100
AcDbText
  0
TEXT
  5
140
330
1F
100
AcDbEntity
  8
0
 62
     7
100
AcDbText
 10
8.899999904632558
 20
28.50552621075939
 30
0.0
 40
4.0
  1
52.05
 41
0.8
  7
FDASTYLE0
 72
     5
 11
24.89999990463256
 21
28.50552621075939
 31
0.0
100
AcDbText
  0
TEXT
  5
141
330
1F
100
AcDbEntity
  8
0
 62
     7
100
AcDbText
 10
42.525
 20
-16.4944737892406
 30
0.0
 40
4.0
  1
4
 41
0.8000000000000007
  7
FDASTYLE0
 72
     5
 11
45.725
 21
-16.4944737892406
 31
0.0
100
AcDbText
  0
TEXT
  5
142
330
1F
100
AcDbEntity
  8
0
 62
     7
100
AcDbText
 10
-5.227220095367439
 20
-16.4944737892406
 30
0.0
 40
4.0
  1
(2.5)
 41
0.8
  7
FDASTYLE0
 72
     5
 11
10.77277990463256
 21
-16.4944737892406
 31
0.0
100
AcDbText
  0
TEXT
  5
143
330
1F
100
AcDbEntity
  8
0
 62
     7
100
AcDbText
 10
52.69234818903559
 20
-16.42785556606599
 30
0.0
 40
4.0
  1
（＋）ＭＡＲＫ
 41
0.6666666666666666
  7
FDASTYLE0
 72
     5
 11
75.09234818903559
 21
-16.42785556606599
 31
0.0
100
AcDbText
  0
TEXT
  5
144
330
1F
100
AcDbEntity
  8
0
 62
     7
100
AcDbText
 10
-84.6805908051865
 20
-24.59563970546223
 30
0.0
 40
4.0
  1
　2-M2(P=0.4)ＤＥＰＴＨ　3MAX
 41
0.7521367521367522
  7
FDASTYLE0
 72
     5
 11
-14.28059080518649
 21
-24.59563970546223
 31
0.0
100
AcDbText
  0
TEXT
  5
145
330
1F
100
AcDbEntity
  8
0
 62
     7
100
AcDbText
 10
-31.87588271793982
 20
-32.75552621075939
 30
0.0
 40
4.0
  1
NAMEPLATE　LOT№
 41
0.7777777777777778
  7
FDASTYLE0
 72
     5
 11
12.92411728206018
 21
-32.75552621075939
 31
0.0
100
AcDbText
  0
TEXT
  5
146
330
1F
100
AcDbEntity
  8
0
 62
     7
100
AcDbText
 10
-20.02278009536744
 20
20.5055262107594
 30
0.0
 40
4.0
  1
6.5
 41
0.8000000000000002
  7
FDASTYLE0
 72
     5
 11
-10.42278009536744
 21
20.5055262107594
 31
0.0
100
AcDbText
  0
INSERT
  5
147
330
1F
100
AcDbEntity
  8
0
  6
CONTINUOUS
100
AcDbBlockReference
  2
DA_IMAGEDIMGROUP_1
 10
0.0
 20
0.0
 30
0.0
  0
INSERT
  5
148
330
1F
100
AcDbEntity
  8
0
  6
CONTINUOUS
100
AcDbBlockReference
  2
DA_IMAGEDIMGROUP_2
 10
0.0
 20
0.0
 30
0.0
  0
VIEWPORT
  5
48
330
1B
100
AcDbEntity
 67
     1
  8
0
100
AcDbViewport
 10
1.874999999999972
 20
-0.5
 30
0.0
 40
529.5000005722045
 41
198.0331572645563
 68
     1
 69
     1
1001
ACAD
1000
MVIEW
1002
{
1070
    16
1010
0.0
1020
0.0
1030
0.0
1010
0.0
1020
0.0
1030
1.0
1040
0.0
1040
198.0331572645563
1040
1.874999999999972
1040
-0.5
1040
50.0
1040
0.0
1040
0.0
1070
     0
1070
   100
1070
     0
1070
     1
1070
     0
1070
     0
1070
     0
1070
     0
1040
0.0
1040
0.0
1040
0.0
1040
0.5
1040
0.5
1040
0.0
1040
0.0
1070
     0
1002
{
1002
}
1002
}
  0
ENDSEC
  0
SECTION
  2
OBJECTS
  0
DICTIONARY
  5
C
330
0
100
AcDbDictionary
  3
ACAD_GROUP
350
D
  3
ACAD_LAYOUT
350
1A
  3
ACAD_MLINESTYLE
350
17
  3
ACAD_PLOTSETTINGS
350
19
  3
ACDBHEADERROUNDTRIPXREC
350
149
  0
DICTIONARY
  5
D
102
{ACAD_REACTORS
330
C
102
}
330
C
100
AcDbDictionary
  0
DICTIONARY
  5
1A
102
{ACAD_REACTORS
330
C
102
}
330
C
100
AcDbDictionary
  0
DICTIONARY
  5
17
102
{ACAD_REACTORS
330
C
102
}
330
C
100
AcDbDictionary
  3
STANDARD
350
18
  0
DICTIONARY
  5
19
102
{ACAD_REACTORS
330
C
102
}
330
C
100
AcDbDictionary
  0
DICTIONARY
  5
149
102
{ACAD_REACTORS
330
C
102
}
330
C
100
AcDbDictionary
  3
CEPSNTYPE
350
152
  3
DIMSTYLEDATA
350
168
  3
FINGERPRINTGUID
350
153
  3
HYPERLINKBASE
350
14C
  3
INSUNITS
350
151
  3
LAYOUTDICT
350
14E
  3
LWETCUNION
350
150
  3
PLOTSETDICT
350
14F
  3
PSVPSCALE
350
155
  3
PUCSBASE
350
158
  3
PUCSORGBACK
350
15E
  3
PUCSORGBOTTOM
350
15A
  3
PUCSORGFRONT
350
15D
  3
PUCSORGLEFT
350
15B
  3
PUCSORGRIGHT
350
15C
  3
PUCSORGTOP
350
159
  3
PUCSORTHOREF
350
156
  3
PUCSORTHOVIEW
350
157
  3
STYLESHEET
350
14D
  3
TSTACKALIGN
350
14A
  3
TSTACKSIZE
350
14B
  3
UCSBASE
350
161
  3
UCSORGBACK
350
167
  3
UCSORGBOTTOM
350
163
  3
UCSORGFRONT
350
166
  3
UCSORGLEFT
350
164
  3
UCSORGRIGHT
350
165
  3
UCSORGTOP
350
162
  3
UCSORTHOREF
350
15F
  3
UCSORTHOVIEW
350
160
  3
VERSIONGUID
350
154
  0
MLINESTYLE
  5
18
102
{ACAD_REACTORS
330
17
102
}
330
17
100
AcDbMlineStyle
  2
Standard
 70
     0
  3

 62
   256
 51
90.0
 52
90.0
 71
     2
 49
0.5
 62
   256
  6
BYLAYER
 49
-0.5
 62
   256
  6
BYLAYER
  0
XRECORD
  5
152
102
{ACAD_REACTORS
330
149
102
}
330
149
100
AcDbXrecord
 90
        0
  0
XRECORD
  5
168
102
{ACAD_REACTORS
330
149
102
}
330
149
100
AcDbXrecord
1000
DSTYLE
1002
{
1070
   171
 70
     2
1070
   143
 40
25.4
1070
   274
 70
     2
1070
   141
 40
0.09
1070
   271
 70
     4
1070
    43
 40
0.38
1070
    44
 40
0.18
1070
   278
 70
    46
1070
    42
 40
0.0625
1070
   147
 40
0.09
1070
    77
 70
     3
1070
   272
 70
     4
1070
    73
 70
     1
1070
   172
 70
     0
1070
    74
 70
     1
1070
   283
 70
     1
1070
   340
340
11
1070
   140
 40
0.18
1070
   284
 70
     0
1070
    78
 70
     0
1002
}
  0
XRECORD
  5
153
102
{ACAD_REACTORS
330
149
102
}
330
149
100
AcDbXrecord
  1
{E2BCD32D-5116-4E4F-9C85-5230AC23CF85}
  0
XRECORD
  5
14C
102
{ACAD_REACTORS
330
149
102
}
330
149
100
AcDbXrecord
  1

  0
XRECORD
  5
151
102
{ACAD_REACTORS
330
149
102
}
330
149
100
AcDbXrecord
 90
        4
  0
XRECORD
  5
14E
102
{ACAD_REACTORS
330
149
102
}
330
149
100
AcDbXrecord
340
1A
  0
XRECORD
  5
150
102
{ACAD_REACTORS
330
149
102
}
330
149
100
AcDbXrecord
 90
    10781
  0
XRECORD
  5
14F
102
{ACAD_REACTORS
330
149
102
}
330
149
100
AcDbXrecord
340
19
  0
XRECORD
  5
155
102
{ACAD_REACTORS
330
149
102
}
330
149
100
AcDbXrecord
 40
0.0
  0
XRECORD
  5
158
102
{ACAD_REACTORS
330
149
102
}
330
149
100
AcDbXrecord
340
0
  0
XRECORD
  5
15E
102
{ACAD_REACTORS
330
149
102
}
330
149
100
AcDbXrecord
 10
0.0
 20
0.0
 30
0.0
  0
XRECORD
  5
15A
102
{ACAD_REACTORS
330
149
102
}
330
149
100
AcDbXrecord
 10
0.0
 20
0.0
 30
0.0
  0
XRECORD
  5
15D
102
{ACAD_REACTORS
330
149
102
}
330
149
100
AcDbXrecord
 10
0.0
 20
0.0
 30
0.0
  0
XRECORD
  5
15B
102
{ACAD_REACTORS
330
149
102
}
330
149
100
AcDbXrecord
 10
0.0
 20
0.0
 30
0.0
  0
XRECORD
  5
15C
102
{ACAD_REACTORS
330
149
102
}
330
149
100
AcDbXrecord
 10
0.0
 20
0.0
 30
0.0
  0
XRECORD
  5
159
102
{ACAD_REACTORS
330
149
102
}
330
149
100
AcDbXrecord
 10
0.0
 20
0.0
 30
0.0
  0
XRECORD
  5
156
102
{ACAD_REACTORS
330
149
102
}
330
149
100
AcDbXrecord
340
0
  0
XRECORD
  5
157
102
{ACAD_REACTORS
330
149
102
}
330
149
100
AcDbXrecord
 70
     0
  0
XRECORD
  5
14D
102
{ACAD_REACTORS
330
149
102
}
330
149
100
AcDbXrecord
  1

  0
XRECORD
  5
14A
102
{ACAD_REACTORS
330
149
102
}
330
149
100
AcDbXrecord
 90
        1
  0
XRECORD
  5
14B
102
{ACAD_REACTORS
330
149
102
}
330
149
100
AcDbXrecord
 90
       70
  0
XRECORD
  5
161
102
{ACAD_REACTORS
330
149
102
}
330
149
100
AcDbXrecord
340
0
  0
XRECORD
  5
167
102
{ACAD_REACTORS
330
149
102
}
330
149
100
AcDbXrecord
 10
0.0
 20
0.0
 30
0.0
  0
XRECORD
  5
163
102
{ACAD_REACTORS
330
149
102
}
330
149
100
AcDbXrecord
 10
0.0
 20
0.0
 30
0.0
  0
XRECORD
  5
166
102
{ACAD_REACTORS
330
149
102
}
330
149
100
AcDbXrecord
 10
0.0
 20
0.0
 30
0.0
  0
XRECORD
  5
164
102
{ACAD_REACTORS
330
149
102
}
330
149
100
AcDbXrecord
 10
0.0
 20
0.0
 30
0.0
  0
XRECORD
  5
165
102
{ACAD_REACTORS
330
149
102
}
330
149
100
AcDbXrecord
 10
0.0
 20
0.0
 30
0.0
  0
XRECORD
  5
162
102
{ACAD_REACTORS
330
149
102
}
330
149
100
AcDbXrecord
 10
0.0
 20
0.0
 30
0.0
  0
XRECORD
  5
15F
102
{ACAD_REACTORS
330
149
102
}
330
149
100
AcDbXrecord
340
0
  0
XRECORD
  5
160
102
{ACAD_REACTORS
330
149
102
}
330
149
100
AcDbXrecord
 70
     0
  0
XRECORD
  5
154
102
{ACAD_REACTORS
330
149
102
}
330
149
100
AcDbXrecord
  1
{FAEB1C32-E019-11D5-929B-00C0DF256EC4}
  0
ENDSEC
  0
EOF
